» » »

To Be Alone With You Tabs (ver.1)

Artists:  A B C D E F G H I J K L M N O P Q R S T U V W X Y Z # 

To Be Alone With You Tabs (ver.1)

Sufjan Stevens
Rating:
0/5 (0 votes)

Hard to play? Try these video lessons and learn fast.
                I probably don't have the chord names right, but I have a little picture of
each one anyway.
__________________________________________________________
GUITAR 1 (Capo 3)

Intro

   F/A	   Am     G      Fadd11
e|----------------------------|
B|---1p0-----0h1----0------0--|
G|---2-------2------0------2--|
D|---3-------2------0------3--|
A|-0-------0--------x------x--| x2
E|----------------3------1----|

Verse

   F/A	   Am      G       Fadd11
e|------------------------------|
B|---1p0-----0h1-----0-------0--|
G|---2-------2-------0-------2--|
D|---3-------2-------0-------3--|
A|-0-------0---------x-------x--| x4 (last time, hold the Fadd11 1 more bar)
E|-----------------3-------1----|

Chorus

   C/G 	   Fadd11  Am	   D/F#    Fadd11  C/G
e|----------------------------------------------|
B|---1-------0-------1-------3-------0-------1--|
G|---0-------2-------2-------2-------2-------0--|
D|---2-------3-------2-------0-------3-------2--|
A|---3-------3-----0---------x-------3-------3--| x1
E|-3-------1---------------2-------1-------3----|

Intro and Verse same as above


Chorus 2
   C/G 	   Fadd11  Am	   D/F#    Fadd11
e|--------------------------------------|
B|---1-------0-------1-------3-------0--|
G|---0-------2-------2-------2-------2--|
D|---2-------3-------2-------0-------3--|
A|---3-------3-----0---------x-------3--| x1
E|-3-------1---------------2-------1----|

Bridge

"...You went up on a Tree..."
   Am	   G      F
e|---------------------|
B|---1-------0------0--|
G|---2-------0------2--|
D|---2-------0------3--|
A|-0---------x------x--| x2
E|---------3------1----|


"I've never known a man who loved me"
   Am	   Em      F
e|---------------------|
B|---1-------0------0--|
G|---2-------0------2--|
D|---2-------2------3--|
A|-0---------2------x--| x1 (on fourth bar of F, hit the bass note and hold it)
E|---------0------1----|

__________________________________________________________________
GUITAR 2 (Do nothing until after first run through the chorus.)

Intro/Verse

   F/A          Am		   G		 F
e|------------|------------------|-------------|-------------|
B|---------0--|---------1-----0--|-------------|-------------|
G|-----0------|-----0------------|----------0--|----------0--|
D|-0h2--------|-0h2--------------|-----0-------|-----0-------|
A|------------|------------------|-0h2---------|-0h2---------|
E|------------|------------------|-------------|-------------|

On the choruses and even the bridge Guitar 2 does minimal strumming
and a little bit of picking in between (following the pattern above)
            
Hard to play? Try these video lessons and learn fast. | Correct




comments powered by Disqus
↑ Back to top | Tablatures and chords are parodies/interpretations of the original songs. You may use it for private study, scholarship, research or language learning purposes only