» » »

Suede, Waterloo Tabs (ver.1)

Artists:  A B C D E F G H I J K L M N O P Q R S T U V W X Y Z # 

Waterloo Tabs (ver.1)

Suede Tabs
Rating:
0/5 (0 votes)
Waterloo lessons Tabs too difficult? Try these video lessons and learn fast
                WATERLOO (from "Electricity" B-side by SUEDE)
--------------------------------------------


INTRO:
Em          A          Em         A
--------0---------------------0-----I
-0---3---0--2---3--2---0---3---0--2-I
--0---0---0--2---2--2---0---0---0---I
---2----------2------2---2----------I
------------------------------------I
------------------------------------I

VERSE 1:
Em          A          Em         A           C                 =20
--------0---------------------0---------0---------------0-------I
-0---3---0--2---3--2---0---3---0--2---2--2----1------1----1-----I
--0---0---0--2---2--2---0---0---0--2------2-----0-----------0---I
---2----------2------2---2----------2------2------2-----------2-I
  B
----------2--------I
--4-----4---4------I
----4---------4----I
------4---------4--I
-------------------I
-------------------I

SOLO 1:
--------0h9-9---0h7-7----5---7--0h5-5-I
---7----7-----7-----------5---5-------I
-----------------------7---7----------I
-9---9--------------------------------I
--------------------------------------I
--------------------------------------I

VERSE 2 (same as VERSE 1)

CHORUS:
Em         A
----------------------I
-7-5-------7-5------5-I
----7-6-4-----7-6-7---I (x2)
---------7------------I
----------------------I
----------------------I

SOLO 2: it can be slightly different...
------------------------------------------------------------I
-8-8-7-7---------------------8-8-7-7------------------------I
--------9-9-7-7-7h9-7-7-7h9----------9-9-7-7-6-6-4-4-2-2-2--I     =20
------------------------------------------------------------I
------------------------------------------------------------I
------------------------------------------------------------I

VERSE 3 (same as the others)

CHORUS

SOLO 1 (x2)

VERSE 4: there's no guitar here

CHORUS (x2)

SOLO 1

ENDING:=20

---------------I
--7-5-------5--I
------7-6-7----I
---------------I
---------------I
---------------I

ENJOY!!
            
Submit corrections

comments powered by Disqus
↑ Back to top | Suede Tabs for Waterloo. Lyrics for acoustic guitar and electric guitar. Tablatures and chords are parodies/interpretations of the original songs. You may use it for private study, scholarship, research or language learning purposes only