>
 >
So Young 1

So Young 1 Guitar Tabs

Suede - So Young 1 chords, tabs, tablatures, lyrics

Guitar lessons | Add/correct | Request | Top 50 tabs Artists:  A B C D E F G H I J K L M N O P Q R S T U V W X Y Z 0-9

So Young 1 Guitar Tabs – Suede

CD, Sheet music, Poster

Do you like So Young 1? Share with your friends now
TabsTabs v2
-------------------------------------------------------------------------------
                             So Young - Suede
-------------------------------------------------------------------------------

Thought I'd give this a tabbing to make the rhythm a bit easier to 'read';
hopefully this is accurate but all corrections gratefully received!


Tuning: down a semitone as ever (Eb, Ab, Db, Gb, Bb, eb)


    Intro            (strum)
eb||--------|--------|0-------------------------------|----------------|
Bb||--------|--------|-1------------------------------|----------------|
Gb||--------|--------|--2-----------------------------|--------------0-|
Db||--------|--------|---2----------------------------|----------------|
Ab||--------|--------|----0---------------------------|0---------------|
Eb||--------|--------|--------------------------------|----------------|
    ^ ^ ^ ^  ^ ^ ^ ^  ^       ^       ^       ^        ^   ^   ^   ^    

         |--3--|                                            |--3--|
eb|------0---------|----0-----0-----|----------0---0-|------0---------|
Bb|---------1------|------1h3---1---|--1-0-------3---|---------1------|
Gb|----2-------2---|----------------|------0-1-------|----2-------2---|
Db|--2-------------|----------------|----------------|--2-------------|
Ab|0---------------|0---------------|3---------------|0---------------|
Eb|----------------|----------------|----------------|----------------|
   ^   ^   ^   ^    ^   ^   ^   ^    ^   ^   ^   ^    ^   ^   ^   ^    

         |--3--|
eb|------0---------|----0-----0-----|----------4-----|------0---------||
Bb|---------1------|------1h3---1---|--1-0-------0---|----------1-----||
Gb|----2-------2---|--------------0-|-----0h2/4------|----2-------2---||
Db|--2-------------|----------------|----------------|--2-----------2-||
Ab|0---------------|0---------------|3---------------|0---------------||
Eb|----------------|----------------|----------------|----------------||
   ^   ^   ^   ^    ^   ^   ^   ^    ^   ^   ^   ^    ^   ^   ^   ^


    Verse 1                                                  |--3--|
eb||------0---------|----0-----0-----|----------------|------0---------|
Bb||----------1---1-|------1h3---1---|--1-0-----0-----|---------1------|
Gb||----2-------2---|--------------0-|------0-----1---|----2-------2---|
Db||--2-------------|----------------|--------------0-|--2-------------|
Ab||0---------------|0---------------|3-------2-------|0---------------|
Eb||----------------|----------------|----------------|----------------|
    ^   ^   ^   ^    ^   ^   ^   ^    ^   ^   ^   ^    ^   ^   ^   ^    

                      
eb|------0---------|---3--2--0----0-|----------4-----|------0---------||
Bb|----------1---1-|------------3---|--1-0-------0---|------------3b5r||
Gb|----2-------2---|----------------|-----0h2/4------|----2-----------||
Db|--2-------------|----------------|----------------|--2-------------||
Ab|0---------------|----------------|3---------------|0---------------||
Eb|----------------|----------------|----------------|----------------||
   ^   ^   ^   ^    ^   ^   ^   ^    ^   ^   ^   ^    ^   ^   ^   ^    

    Chorus 1
eb||--------------------------------|--------------------------------|
Bb||1-------------------------------|------------------------12------|
Gb||------------------------14b16r14|13------13--13--13--14------13--|
Db||--------------------------------|--------------------------------|
Ab||--------------------------------|--------------------------------|
Eb||--------------------------------|--------------------------------|
    ^       ^       ^       ^        ^       ^       ^       ^         

eb|--------------------------------|--------------------------------|
Bb|--------------------------------|--------------------------------|
Gb|14------------------------------|--------------------------------|
Db|--------12b-14r-12--10----------|----10--12b-14r-12--10------10--|
Ab|------------------------12--10--|12----------------------12------|
Eb|--------------------------------|--------------------------------|
   ^       ^       ^       ^        ^       ^       ^       ^         

eb|--------------------------------|--------------------------------|
Bb|--------------------------------|------------------------12------|
Gb|------------------------14b16r14|13------13--13--13--14------13--|
Db|--------------------------------|--------------------------------|
Ab|--------------------------------|--------------------------------|
Eb|--------------------------------|--------------------------------|
   ^       ^       ^       ^        ^       ^       ^       ^         

eb|--------------------------------|--------------------------------||
Bb|--------------------------------|--------------------------------||
Gb(14)-----------------------------(14b-16~~~~~~~~~r14)-------------||
Db|7-------7---5---7---5---7-------|5---5---5---5---5---5---5---5---||
Ab|7-------7---5---7---5---7-------|5---5---5---5---5---5---5---5---||
Eb|5-------5---3---5---3---5-------|3---3---3---3---3---3---3---3---||
   ^       ^       ^       ^        ^       ^       ^       ^         

    Verse 2                                                  |--3--|
eb||------0---------|----0-----0-----|----------------|------0---------|
Bb||----------1---1-|------1h3---1---|--1-0-----0-----|---------1------|
Gb||----2-------2---|--------------0-|------0-----1---|----2-------2---|
Db||--2-------------|----------------|--------------0-|--2-------------|
Ab||0---------------|0---------------|3-------2-------|0---------------|
Eb||----------------|----------------|----------------|----------------|
    ^   ^   ^   ^    ^   ^   ^   ^    ^   ^   ^   ^    ^   ^   ^   ^    

eb|------0---------|----0-----------|----------4-----|------0---------||
Bb|----------1---1-|3b5---5r3p1-----|--1-0-------0---|------------3b5r||
Gb|----2-------2---|------------2---|-----0h2/4------|----2-----------||
Db|--2-------------|----------------|----------------|--2-------------||
Ab|0---------------|----------------|3---------------|0---------------||
Eb|----------------|----------------|----------------|----------------||
   ^   ^   ^   ^    ^   ^   ^   ^    ^   ^   ^   ^    ^   ^   ^   ^    

    Chorus 2
eb||--------------------------------|--------------------------------|
Bb||1-------------------------------|------------------------12------|
Gb||------------------------14b16r14|13------13--13--13--14------13--|
Db||--------------------------------|--------------------------------|
Ab||--------------------------------|--------------------------------|
Eb||--------------------------------|--------------------------------|
    ^       ^       ^       ^        ^       ^       ^       ^         

eb|--------------------------------|--------------------------------|
Bb|--------------------------------|--------------------------------|
Gb|14------------------------------|--------------------------------|
Db|--------12b-14r-12--10----------|----10--12b-14r-12--10------10--|
Ab|------------------------12--10--|12----------------------12------|
Eb|--------------------------------|--------------------------------|
   ^       ^       ^       ^        ^       ^       ^       ^         

eb|--------------------------------|--------------------------------|
Bb|--------------------------------|------------------------12------|
Gb|------------------------14b16r14|13------13--13--13--14------13--|
Db|--------------------------------|--------------------------------|
Ab|--------------------------------|--------------------------------|
Eb|--------------------------------|--------------------------------|
   ^       ^       ^       ^        ^       ^       ^       ^         

eb|--------------------------------|--------------------------------|
Bb|--------------------------------|--------------------------------|
Gb|14------7 b 9 r 7---5-----------|----5---7 b 9 r 7 b 9 r 7---5---|
Db|------------------------7---5---|7-------------------------------|
Ab|--------------------------------|--------------------------------|
Eb|--------------------------------|--------------------------------|
   ^       ^       ^       ^        ^       ^       ^       ^         

eb|--------------------------------|--------------------------------|
Bb|--------------------------------|------------------------12------|
Gb|------------------------14b16r14|13------13--13--13--14------13--|
Db|--------------------------------|--------------------------------|
Ab|--------------------------------|--------------------------------|
Eb|--------------------------------|--------------------------------|
   ^       ^       ^       ^        ^       ^       ^       ^         

eb|--------------------------------|--------------------------------|
Bb|--------------------------------|--------------------------------|
Gb|14------------------------------|--------------------------------|
Db|--------12b-14r-12--10----------|----10--12b-14r-12--10------10--|
Ab|------------------------12--10--|12----------------------12------|
Eb|--------------------------------|--------------------------------|
   ^       ^       ^       ^        ^       ^       ^       ^         

eb|--------------------------------|--------------------3-------2---|
Bb|--------------------------------|--------------------------------|
Gb|------------------------14b16r14|12----------2-/-4-----\-3-----\-|
Db|--------------------------------|--------------------------------|
Ab|--------------------------------|--------------------------------|
Eb|--------------------------------|--------------------------------|
   ^       ^       ^       ^        ^       ^       ^       ^

eb|--------------------------------|--------------------------------|---
Bb|--------------------------------|--------------------------------|---
Gb|2-------------------------------|--------------------------------|---
Db|------------3---3---3---3-------|3---3---3---3---5---5---5---5---|-7-
Ab|------------3---3---3---3-------|3---3---3---3---5---5---5---5---|-7-
Eb|------------1---1---1---1-------|1---1---1---1---3---3---3---3---|-5-
   ^       ^       ^       ^        ^       ^       ^       ^        ^ 


Bridge - piano break, rest until

"...kept me on the boil..."
eb|1---1---1---1---|3---3---3---3---|0---0---0---0---|0---0---0---0---|
Bb|1---1---1---1---|3---3---3---3---|0---0---0---0---|3---3---3---3---|
Gb|2---2---2---2---|4---4---4---4---|1---1---1---1---|1---1---1---1---|
Db|3---3---3---3---|5---5---5---5---|2---2---2---2---|2---2---2---2---|
Ab|3---3---3---3---|5---5---5---5---|2---2---2---2---|2---2---2---2---|
Eb|1---1---1---1---|3---3---3---3---|0---0---0---0---|0---0---0---0---|
   ^   ^   ^   ^    ^   ^   ^   ^    ^   ^   ^   ^    ^   ^   ^   ^    

    Chorus 3
eb||--------------------------------|--------------------------------|
Bb||--------------------------------|------------------------12------|
Gb||------------------------14b16r14|13------13--13--13--14------13--|
Db||--------------------------------|--------------------------------|
Ab||--------------------------------|--------------------------------|
Eb||--------------------------------|--------------------------------|
    ^       ^       ^       ^        ^       ^       ^       ^         

eb|--------------------------------|--------------------------------|
Bb|--------------------------------|--------------------------------|
Gb|14------------------------------|--------------------------------|
Db|--------12b-14r-12--10----------|----10--12b-14r-12--10------10--|
Ab|------------------------12--10--|12----------------------12------|
Eb|--------------------------------|--------------------------------|
   ^       ^       ^       ^        ^       ^       ^       ^         

eb|--------------------------------|--------------------------------|
Bb|--------------------------------|------------------------12------|
Gb|------------------------14b16r14|13------13--13--13--14------13--|
Db|--------------------------------|--------------------------------|
Ab|--------------------------------|--------------------------------|
Eb|--------------------------------|--------------------------------|
   ^       ^       ^       ^        ^       ^       ^       ^         

eb|--------------------------------|--------------------------------|
Bb|--------------------------------|--------------------------------|
Gb|14------7 b 9 r 7---5-----------|----5---7 b 9 r 7 b 9 r 7---5---|
Db|------------------------7---5---|7-------------------------------|
Ab|--------------------------------|--------------------------------|
Eb|--------------------------------|--------------------------------|
   ^       ^       ^       ^        ^       ^       ^       ^         

eb|--------------------------------|--------------------------------|
Bb|--------------------------------|------------------------12------|
Gb|------------------------14b16r14|13------13--13--13--14------13--|
Db|--------------------------------|--------------------------------|
Ab|--------------------------------|--------------------------------|
Eb|--------------------------------|--------------------------------|
   ^       ^       ^       ^        ^       ^       ^       ^         

eb|--------------------------------|--------------------------------|
Bb|--------------------------------|--------------------------------|
Gb|14------7 b 9 r 7---5-----------|----5---7 b 9 r 7 b 9 r 7---5---|
Db|------------------------7---5---|7-------------------------------|
Ab|--------------------------------|--------------------------------|
Eb|--------------------------------|--------------------------------|
   ^       ^       ^       ^        ^       ^       ^       ^         

eb|--------------------------------|--------------------------------|
Bb|--------------------------------|------------------------12------|
Gb|------------------------14b16r14|13------13--13--13--14------13--|
Db|--------------------------------|--------------------------------|
Ab|--------------------------------|--------------------------------|
Eb|--------------------------------|--------------------------------|
   ^       ^       ^       ^        ^       ^       ^       ^         

eb|--------------------------------|--------------------------------|
Bb|--------------------12----------|12b13------b13-b13-r12--12------|
Gb|14------14--13--14----------14--|--------------------------------|
Db|--------------------------------|--------------------------------|
Ab|--------------------------------|--------------------------------|
Eb|--------------------------------|--------------------------------|
   ^       ^       ^       ^        ^       ^       ^       ^         

eb|--------------------------------|--------------------------------|
Bb|12 (slow bend) 13---------------|----12--13--12-12h13---12---13--|
Gb|--------------------------------|--------------------------------|
Db|--------------------------------|--------------------------------|
Ab|--------------------------------|--------------------------------|
Eb|--------------------------------|--------------------------------|
   ^       ^       ^       ^        ^       ^       ^       ^         

                                    |-----3-----| |-----3-----|
eb|--------------------------------|------------------------------|
Bb|13b 15---------r13----------12--|13---12------------------12---|
Gb|--------------------------------|----------14---12---14--------|
Db|--------------------------------|------------------------------|
Ab|--------------------------------|------------------------------|
Eb|--------------------------------|------------------------------|
   ^       ^       ^       ^        ^       ^       ^       ^         

eb|--------------------------------|--------------------------------|
Bb|12h13-------13------------------|----12--13--12-12h13---12---13--|
Gb|--------------------------------|--------------------------------|
Db|--------------------------------|--------------------------------|
Ab|--------------------------------|--------------------------------|
Eb|--------------------------------|--------------------------------|
   ^       ^       ^       ^        ^       ^       ^       ^         

                                    |-----3-----| |-----3-----|
eb|--------------------------------|------------------------------|
Bb|13b 15---------r13----------12--|13---12------------------12---|
Gb|--------------------------------|----------14---12---14--------|
Db|--------------------------------|------------------------------|
Ab|--------------------------------|------------------------------|
Eb|--------------------------------|------------------------------|
   ^       ^       ^       ^        ^       ^       ^       ^         

eb|--------------------------------|--------------------------------|
Bb|12h13-------13------------------|----12--13--12-12h13---12---13--|
Gb|--------------------------------|--------------------------------|
Db|--------------------------------|--------------------------------|
Ab|--------------------------------|--------------------------------|
Eb|--------------------------------|--------------------------------|
   ^       ^       ^       ^        ^       ^       ^       ^         

                                    |-----3-----| |-----3-----|
eb|--------------------------------|------------------------------|
Bb|13b 15---------r13----------12--|13---12------------------12---|
Gb|--------------------------------|----------14---12---14--------|
Db|--------------------------------|------------------------------|
Ab|--------------------------------|------------------------------|
Eb|--------------------------------|------------------------------|
   ^   ^   ^   ^   ^   ^   ^   ^    ^   ^   ^   ^   ^   ^   ^   ^  

eb|--------------------------------|--------------------------------|
Bb|12h13-------13------------------|----12--13--12-12h13---12---13--|
Gb|--------------------------------|--------------------------------|
Db|--------------------------------|--------------------------------|
Ab|--------------------------------|--------------------------------|
Eb|--------------------------------|--------------------------------|
   ^   ^   ^   ^   ^   ^   ^   ^    ^   ^   ^   ^   ^   ^   ^   ^    

                                    |-----3-----| |-----3-----|
eb|--------------------------------|------------------------------|
Bb|13b 15---------r13----------12--|13---12-----------------------|
Gb|--------------------------------|----------14---12---14---12---|
Db|--------------------------------|------------------------------|
Ab|--------------------------------|------------------------------|
Eb|--------------------------------|------------------------------|
   ^       ^       ^       ^        ^       ^       ^       ^         


eb|--------------------------------|
Bb|--------------------------------|
Gb|--------------------------------|
Db|14---12-----12h13---------------|
Ab|--------------------------------|
Eb|--------------------------------|
   ^       ^       ^       ^


************************************

| /   slide up
| \   slide down
| h   hammer-on
| p   pull-off
| ~   vibrato
| +   harmonic
| x   Mute note
| b   Bend
| pb  Pre-bend
| br  Bend release
| pbr Pre-bend release
| brb Bend release bend

************************************





Comments


Popular Suede tabs & chords
Animal Lover 1 Bass Tabs
A Love As Strong As Death Chords
Lonely Girls Chords
Lost In Tv 1 Chords
Morning Chords
Bored Tabs
So Young Tabs
The Wild Ones Tabs
Have You Ever Been This Low Ukulele
Sadie Ukulele


Song lyrics



↑ Back to top | Tablatures and chords are parodies/interpretations of the original songs. You may use it for private study, scholarship, research or language learning purposes only
© 2014 AZChords.com Contact us | Privacy policy | DMCA | Add/correct tabs | Request tabs | Top 50 tabs