>
 >
New Generation

New Generation Guitar Tabs

Suede - New Generation chords, tabs, tablatures, lyrics

Guitar lessons | Add/correct | Request | Top 50 tabs Artists:  A B C D E F G H I J K L M N O P Q R S T U V W X Y Z 0-9

New Generation Guitar Tabs – Suede

CD, Sheet music, Poster

Do you like New Generation? Share with your friends now
ChordsTabsUkulele
INTRO (1/2 step down)
G                              A
-----------------------------------------------------------|
--8--8--7--7--5--8-8-8---7h8-5-8-8-7-7-5-------------------|
--------------------------------------------6-6-6-6-7-9----|
-----------------------------------------------------------|
-----------------------------------------------------------|
-----------------------------------------------------------|
  G                               A                A        G  A
------------------------------------------------------------------|
--8--8--7--7--5--8--8--8--7h8--5--8--8--7--7--5-------------------|
------------------------------------------------6--6--6--6--4--6--|
---------------------------------------------------7--7--7--5--7--|
---------------------------------------------------7--7--7--5--7--|
---------------------------------------------------5--5--5--3--5--|

Verse (I wake up everyday...)
  D                              A
------------------------------------------------------------------|
--7--7--5h7--8--7--7--7--5h7--8--8--8--7--7--5----------8--7--5---|
-----------------------------------------------6--6--4s-----------|
------------------------------------------------------------------|
------------------------------------------------------------------|
------------------------------------------------------------------|

  Bm                                   G
-----------------------------------------------5--6--5--3--|
--7--7--5h7--8--7--7--7--5h7--(8)--8--8--8-----------------|
--------------------------------------------7--------------| (x2)
-----------------------------------------------------------|
-----------------------------------------------------------|
-----------------------------------------------------------|

Pre-Chorus (0:47 - but all the boys...) = INTRO

Chorus (1:03 - Oh, but when she is calling...)
  D                          F#
----------------------------------------------------------------|
----------------------------------------------------------------|
--11--12--14--12--11--9--11-------3h4--6--4--3------------------|
-----------------------------4--4--------------4--4--2---2--4---|
-------------------------------------------------------4--------|
----------------------------------------------------------------|

  Bbm                              F#m
-----7------7--------9---10-9------------------------|
-------7------7----7---7------7------3b-----3b--5b---|
---------7------7---------------7s---3b-----3b--5b---| (x2)
--9--------------------------------5-----5-----------|
-----------------------------------------------------|
-----------------------------------------------------|

Post Chorus  (And I'm losin' myself, losin' myself to you...)
G A G A

Chorus 2 (igual o primeiro, mas na segunda vez toca isso.)
  Bm                      G
--------------------------------------------|
-----------------------------3b-----3b--5b--|
---------7--9b----7--7-------3b-----3b--5b--|
--9--7h9--------9------9s--5-----5----------|
--------------------------------------------|
--------------------------------------------|

SOLO
OUTRO:
  G                                     A
------3-----3--3-----3-----3--3-----3--------5-----5--5-----5---|
--3h5---3h5------3h5---3h5------3h5---3--5h7---5h7------5h7-----|
----------------------------------------------------------------|
----------------------------------------------------------------|
----------------------------------------------------------------|
----------------------------------------------------------------|

                    G
------5--5-----5---------10------10-10-------10------10--10-------10----|
--5h7------5h7---5--10h12---10h12------10h12---10h12--------10h12---10--|
------------------------------------------------------------------------|
------------------------------------------------------------------------|
------------------------------------------------------------------------|
------------------------------------------------------------------------|

  A
--------12-------12--12--------12--12--11--11--10--10--9--------|
--12h14----12h14--------12h14--14--14--13--13--12--12--11-------|
----------------------------------------------------------------|
----------------------------------------------------------------|
----------------------------------------------------------------|
----------------------------------------------------------------|

  G                                  A
(----------------------------------------------------------------|
(------------------------------------8--8--10--10--8--8--10--10--|
(------7---7h9--7---------------7----7--7--9---9---7--7--9---9---|
(--7h9---9---------7b--7b--7--9---9--9--9--11--11--9--9--11--11--|
(----------------------------------------------------------------|
(----------------------------------------------------------------|

        G                       A
-------------------------------------------------------7--7-----|
--9--9-----------------------------------8--8--10--10--8--8-----|
--8--8------7---7h9--7--------------7----7--7--9---9---7--7-----|
--10-10-7h9---9--------7b--7b--7--9---9--9--9--11--11--9--9-----|
----------------------------------------------------------------|
----------------------------------------------------------------|


--9----9--8--8----)
--10---10-9--9--)-) (x2)
--9----9--8--8----)
--11---11-10-10---)
------------------)
------------------)

  G                  A                  G                A
-----------------------------------------------------------------|
--8--7--5--3--2-------------------------8--7--5--3--2------------|
----------------4--2----------------------------------4--2-------|
---------------------5--4--2------2--4---------------------5--4--|
-----------------------------5--5--------------------------------|
-----------------------------------------------------------------|

                          G
--------------------------3--|
--------------------------3--|
--------------------------4--|
--4--4--4--4--4--4--4--3--5--|
-----------------------------|
-----------------------------|





Comments


Popular Suede tabs & chords
Cheap Chords
Drowners Chords
Animal Nitrate 1 Tabs
Electricity 1 Tabs
Filmstar Tabs
2 Of Us Ukulele
Drowners Ukulele
Europe Is Our Playground Ukulele
Positivity Ukulele
The Living Dead Ukulele


Song lyrics



↑ Back to top | Tablatures and chords are parodies/interpretations of the original songs. You may use it for private study, scholarship, research or language learning purposes only
© 2014 AZChords.com Contact us | Privacy policy | DMCA | Add/correct tabs | Request tabs | Top 50 tabs