>
 >
Metal Mickey

Metal Mickey Bass Tabs

Suede - Metal Mickey chords, tabs, tablatures, lyrics

Guitar lessons | Add/correct | Request | Top 50 tabs Artists:  A B C D E F G H I J K L M N O P Q R S T U V W X Y Z 0-9

Metal Mickey Bass Tabs – Suede

CD, Sheet music, Poster

Do you like Metal Mickey? Share with your friends now
Bass TabsChordsTabsUkulele
On: A boring 6th of May, 2003 (take 3)

I started with standard tuning and tuned down half a step 
(half a semitone? a quartertone? a little bit)

h: hammer on
p: pull off
/: slide up
\: slide down

Intro
G |----------5-------|
D |-5h7p5--5---5-----|
A |------7-------5---|
E |----------------8-|

verse
G |----------------------------------|----------------5h7p5---5h7p5----|
D |-------5-7-------5-----5-4h5p4--4-|-4-------------------5h7-----5h7-|
A |---------------5--------------5---|-5-------------5-----------------|
E |-5--------------------------------|-------7-8-----------------------|

G |----------------------------------|-------------------------5-------|
D |-------5-7-------5-----5-4h5p4--4-|----------------5h7p5--5---5-----|
A |---------------5--------------5---|-5-------------5-----7-------5---|
E |-5--------------------------------|-------7-8---------------------8-|

chorus
G |-------------------------5-5-5h4--|---------------------------------|
D |-5-----5---------4-----4--------4-|-5-----5---------------------7---|
A |----------------------------------|-----------------5-5-----------7-|
E |---------8-----8------------------|---------8-----8-----8-8-7-7-----|

G |---------------------------------|-------------------
D |-7-----7-------------------------|--5-5-4-4----------
A |---------5-----5-7-----7-5-----5-|----------7-7-5-5--
E |---------------------------------|-------------------

G |---------------------------------|
D |---------------------------------|
A |-7-7-7-7---7---7---7---7---7---7-|
E |---------------------------------|

verse x1

chorus x1

bridge bit directly after end of second chorus
G |----------------------------------|-19-----17\--------------5-------|
D |--------rest-for-one-bar-then-----|----------------5h7p5--5---5-----|
A |----------------------------------|---------------------7-------5---|
E |----------------------------------|-------------------------------8-|

verse again
G |-----------------------------------|-----------------5h7p5----5h7p5----|
D |-------5-7-------5-----5-4h5p4---4-|-4--------------------5h7------5h7-|
A |---------------5---------------5---|-5-------------5-------------------|
E |-5---------------------------------|-------7-8-------------------------|
                                         
G |-----------------------------------|-----------------
D |-------5-7-------5-----5-4h5p5---4-|-----------------
A |---------------5---------------5---|-5-------------5-
E |-5---------------------------------|-------7-8-------

G |-----------------------------------|
D |-----------------------------------|
A |-5-5-5-5-5-5-5-5-5-5-5-5-5--rest---|
E |-----------------------------------|

chorus x1

outro x whatever
G |-------------------------7-7-7p5p4-|----------------------------------|
D |-7-----7---------------------------|-7-----7-----------------5---5----|
A |---------5-----5-7-----7-----------|---------5-----5-7-----7---7------|
E |-----------------------------------|----------------------------------|





Comments


Popular Suede tabs & chords
God's Gift Chords
It Starts And Ends With You 2 Chords
Just A Girl Chords
Streetlife Chords
Another No One Ukulele
High Rising Ukulele
Rainy Day Girl Ukulele
Sam Ukulele
The Power Ukulele
To The Sea Ukulele


Song lyrics



↑ Back to top | Tablatures and chords are parodies/interpretations of the original songs. You may use it for private study, scholarship, research or language learning purposes only
© 2014 AZChords.com Contact us | Privacy policy | DMCA | Add/correct tabs | Request tabs | Top 50 tabs