>
 >
Leaving

Leaving Guitar Tabs

Suede - Leaving chords, tabs, tablatures, lyrics

Guitar lessons | Add/correct | Request | Top 50 tabs Artists:  A B C D E F G H I J K L M N O P Q R S T U V W X Y Z 0-9

Leaving Guitar Tabs – Suede

CD, Sheet music, Poster

Do you like Leaving? Share with your friends now
ChordsTabsUkulele
LEAVING By SUEDE (from everything will flow B-side)
---------------------------------------------------


NOTE!!
There are many little riff in that song, I tried to tab it the best
I could but the best thing to do is to listen to the song carefully=20
to understand what I mean in that fill....I hope it is alright...


INTRO:
-----

RIFF 1 (played with the piano)

      (x4)      
----------------(-5-----3--------)
--5------6--8---(---3-----3---3--)
----5---------0-(-----3-----3----)
------7---------(----------------)
----------------------------------
----------------------------------

While  ( ) are played,  RIFF 2 is also played twice:

RIFF2:
--5--5--5--5--5--3--3--3--
--5--5--5--5--5--3--3--3--
--------------------------
--------------------------
--------------------------
-------------------------- (I'm not sure about it)


VERSE1: play RIFF2 along while RIFF1 is played by the piano
play this RIFF3 at the end:
G/--3-0-0-0--3--------
D/-------------4-4-4--


CHORUS1: play RIFF1 with overdrive and RIFF3


VERSE2:
play this sometimes:
-----
--5-- (x2)
--5--

But the rest is the same as VERSE1

In the end, play this little riff:

--10s17s15--
--10s17s15--


CHORUS2: same as CHORUS1
But play this in the end:

--5s8--8s10--10s13--13--
--5-8--8-10--10-13--13-- (x2)

--0--3-3--5-5--8--10--12~--
--0--3-3--5-5--8--10--11~--


SOLO:
--------------------------10s-17-17s-15----------------------
-5-5-5h6-6-6-6h8-8-8-8s10-10s-17-17s-15-6-8-11-11-13b14r13---
-------------------------------------------------------------


CHORUS3: same as CHORUS2
But there's a little riff to play :

B/--10--5--6--5--3--1-------
G/--------------------3--2--


Actually, the song finishes on that:

--5s8--8s10--10s13--13--
--5-8--8-10--10-13--13-- (x2)

--0--3-3--5-5--8--10--12~--
--0--3-3--5-5--8--10--11~--



ENJOY!!





Comments


Popular Suede tabs & chords
Animal Nitrate 1 Chords
God's Gift Chords
Obsessions Chords
Stay Together Chords
Crack In The Union Jack Tabs
Saturday Night 1 Tabs
Cant Get Enough Ukulele
Lost In Tv Ukulele
Shes Not Dead Ukulele
When The Rain Falls Ukulele


Song lyrics



↑ Back to top | Tablatures and chords are parodies/interpretations of the original songs. You may use it for private study, scholarship, research or language learning purposes only
© 2014 AZChords.com Contact us | Privacy policy | DMCA | Add/correct tabs | Request tabs | Top 50 tabs