>
 >
Electricity

Electricity Guitar Tabs

Suede - Electricity chords, tabs, tablatures, lyrics

Guitar lessons | Add/correct | Request | Top 50 tabs Artists:  A B C D E F G H I J K L M N O P Q R S T U V W X Y Z 0-9

Electricity Guitar Tabs – Suede

CD, Sheet music, Poster

Do you like Electricity? Share with your friends now
TabsTabs v2
Tunning: standard

ELECTRICITY
-----------


VERSES:

e------------------------------)I
b------------------------------)I
g-----------------------s4-2-I-) (x2)
d------------------------------)I
a------10-10h12p10--10s--------)I
E-10-12-----------12-----------)I

e-------------------------------------------)I
b-------------------------------------------)I
g------------------------s4--4--1--2--1-----)I
d-------------------------------2--2--2-----)I
a------10-10h12p10--10s-----------------7---)I
E-10-12-----------12------------------------)I

Last time, repeat the end like this:

e----------------2----)I
b----------------2----)I
g--1--2--1--1--2------)I
d--2--2--2--2--2------)I
a---------------------)I
E---------------------)I

CHORUS:
                             =20
e-----------------------------------4--4-4-4-4-------------------)I
b--2-4-2-4-2-4-2-4/-4-4-4-4-4----------5-5-5-5-5-7---------------)I
g--2-4-2-4-2-4-2-4/-4-4-4-4-4--4--6------------6-8---------------)I
d--2-4-2-4-2-4-2-4/-4-4-4-4-4-----------------------11-11-9-11---)I
a---------------------------------------------------11-11--------)I
E----------------------------------------------------9--9--------)I

e------------------------2-2-2-----------7(x8)----)I
b--9-------------------9-2-2-2-----------9--------)I
g----------------------------------------9------I-) (x2)
d-----11-11-11-9-11----------------------9--------)I
a-----11-11---------------------------------------)I
E------9--9--------------------2-4-5-4------------)I

THE 2ND TIME PLAY THIS IN THE END:
e---------------------)I
b---------------------)I
g---------------------)I
d-0-5-4-5-0-(7s)-I=20-)
a---------------------)I
E---------------------)I
don't play the () before the solo

SOLO:
e----------------------------------------)I
b----------------------------------------)I
g-2-2-4-2-4/-0-0-2-0-2/-(x3)-1-2-1(x2)---)I
d----------------------------2-2-2-------)I
a----------------------------------------)I
E----------------------------------------)I

Add this the 2nd time:

e-------2---)I
b-------2---)I
g--1--2-----)I
d--2--2-----)I
a-----------)I
E-----------)I

CHORUS FOR THE END:
e--------------------------------------------------------------)I
b-2-4-2-4-2-4-2-4/-4-4-5-4-5-4-5-4-5--7-7-7-5-5-4-5-4-5-4-5-5--)I
g-2-4-2-4-2-4-2-4/-4-4-6-4-6-4-6-4-6--6-6-6-6-6-4-6-4-6-4-6-6--)I
d-2-4-2-4-2-4-2-4/---------------------------------------------)I
a--------------------------------------------------------------)I
E--------------------------------------------------------------)I
=20

e------------(---------7-7-7-7-7-7-7-7-7----)
b--7-7-7-7-7-(---------9-9-9-9-9-9-9-9-9----)
g--6-6-6-6-6-(---------9-9-9-9-9-9-9-9-9-)--)  (x2)
d------------(---------9-9-9-9-9-9-9-9-9----)
a------------(------------------------------)
E------------(-2-4-5-4----------------------)

Play this instead of the() the 2nd time

e--2--2--2--2--4--2--0--7(x8)-2-|
b--2--2--2--------------9-----4-|
g-----------------------9-----4-|
d-----------------------9-----4-|
a-------------------------------|
E-------------------------------|

Thats it !!!





Comments


Popular Suede tabs & chords
God's Gift Chords
It Starts And Ends With You 1 Chords
One Love Chords
She Chords
Sleeping Pills Chords
The Power 1 Chords
This World Needs A Father Chords
Graffiti Women Ukulele
Morning Ukulele
Sadie Ukulele


Song lyrics



↑ Back to top | Tablatures and chords are parodies/interpretations of the original songs. You may use it for private study, scholarship, research or language learning purposes only
© 2014 AZChords.com Contact us | Privacy policy | DMCA | Add/correct tabs | Request tabs | Top 50 tabs