>
 >
Beautiful Ones 2

Beautiful Ones 2 Guitar Tabs

Suede - Beautiful Ones 2 chords, tabs, tablatures, lyrics

Guitar lessons | Add/correct | Request | Top 50 tabs Artists:  A B C D E F G H I J K L M N O P Q R S T U V W X Y Z 0-9

Beautiful Ones 2 Guitar Tabs – Suede

CD, Sheet music, Poster

Do you like Beautiful Ones 2? Share with your friends now
Bass TabsBass Tabs v2ChordsChords v2TabsTabs v2Tabs v3UkuleleUkulele v2
Tuning: Standard


E||-----------------------------|--------2--2--------------------|
B||----------------1--3--3b--3--|------1------1-----1--3--3b--3--|
G||----------0-----0--0---------|----2----------2---2--2---------|
D||-----0h-2--------------------|--0--------------0--------------|
A||--3----------3---------------|--------------------------------|
E||-----------------------------|--------------------------------|
  
--------0--0-------------------|--------0--0---------0-----------|
------1------1-----1--3--1--0--|----0--------0---0---------------|
----2----------2---2--2--2--0--|--2------------1---------0-------|
--3--------------3-------------|------2--------------------------|
-------------------------------|-------------------2--------0h-2-|
-------------------------------|---------------------------------|
   
-----------------------------|--------2--2--------------------|
----------------1--3--3b--3--|------1------1-----1--3--3b--3--|
----------0-----0--0---------|----2----------2---2--2---------|
-----0h2---------------------|--0--------------0--------------|
--3----------3---------------|--------------------------------|
-----------------------------|--------------------------------|
  
--------0--0-------------------|--------0--0---------0-----------|
------1------1-----1--3--1--0--|----0--------0---0---------------|
----2----------2---2--2--2--0--|--2------------1---------0-------|
--3--------------3-------------|------2------------2-------------|
-------------------------------|----------------------------0h-2-|
-------------------------------|---------------------------------|
  
|---0--0-0-0--0-0-0--0-0-0--0-0-|--2--2-2-2--2-2-2--2-2-2--2-2-|
|---1--1-1-1--1-1-1--1-1-1--1-1-|--1--1-1-1--1-1-1--1-1-1--1-1-|
|*--0--0-0-0--0-0-0--0-0-0--0-0-|--2--2-2-2--2-2-2--2-2-2--2-2-|
|*--2--2-2-2--2-2-2--2-2-2--2-2-|--0--0-0-0--0-0-0--0-0-0--0-0-|
|---3--3-3-3--3-3-3--3-3-3--3-3-|------------------------------|
|-------------------------------|------------------------------|
    
--0--0-0-0--0-0-3--3-3-3--3-3-|--0--0-0-0--0-0-0--0-0-0--0-0--||
--1--1-1-1--1-1-1--1-1-1--1-1-|--0--0-0-0--0-0-0--0-0-0--0-0--||
--2--2-2-2--2-2-2--2-2-2--2-2-|--2--2-2-2--2-2-1--1-1-1--1-1-*||
--3--3-3-3--3-3-3--3-3-3--3-3-|--2--2-2-2--2-2-2--2-2-2--2-2-*||
------------------------------|--2--2-2-2--2-2-2--2-2-2--2-2--||
------------------------------|--0--0-0-0--0-0-0--0-0-0--0-0--||
   
||-----------------------------|--------------------------|
||-----------------------------|--------------------------|
||*---------------5--7--7---7--|-(7)-5-------5--7--7---7--|
||*---------5--7---------------|--------7-----------------|
||---3--5-7--------------------|--------------------------|
||-----------------------------|--------------------------|
  
------------------------|--------0--0---------0-----------|
------------------------|----0--------0---0---------------|
-(7)-5----------5-------|--2------------1---------0-------|
--------7----7-----7----|------2--------------------------|
------------------------|-------------------2--------0h-2-|
------------------------|---------------------------------|
   
-----------------------------|-------------------------|
-----------------------------|-------------------------|
----------------5--7--7b-----|-(7)-5-------5--7--7--7--|
----------5--7---------------|--------7----------------|
--3--5h-7--------------------|-------------------------|
-----------------------------|-------------------------|
      
------------------------|--0---------0---------|
------------------------|--0---------0--0------|
-(7)-5----------5-------|--2---------1--0------|
--------7----7-----7----|--2---------2--0------|
------------------------|--2---------2---------|
------------------------|--0---------0---------|
   
--------------------------------|---------------------------|
--------------------------------|--0------------------------|
--5----------5---5--7--7--7--5--|--------------0--2--2h--2--|
------5h-7----------------------|---------0h-2--------------|
--------------------------------|---------------------------|
--------------------------------|---------------------------|
   
-------------------------|--------------10--12------13------|
-------------------------|----------10----------11------11--|
--(2)----0-2-2--0--------|------10--------------------------|
-------------------3--0--|--12------------------------------|
-------------------------|----------------------------------|
-------------------------|----------------------------------|
    
--------------------------------|---------------------------|
--------------------------------|---------------------------|
--5----------5---5--7--7--7--5--|--4----------0--2--2b--2---|
------5h-7----------------------|---------0-2---------------|
--------------------------------|---------------------------|
--------------------------------|---------------------------|
   
-------------------------|--------------10--12------13------|
-------------------------|----------10----------11------11--|
--2------0-2-2--0--------|------10--------------------------|
-------------------3--0--|--12------------------------------|
-------------------------|----------------------------------|
-------------------------|----------------------------------|
       
-----0-----------0-----0--|-----------0---0----------||
--------1-----1-----------|--1-----3-----------3-----||
--2--------1--------0-----|-------------------------*||
--------------------------|-----4-------------------*||
--------------------------|--------------------------||
--------------------------|--------------------------||
   
--------------10--12------13------|--------------------------------|
----------10----------11------11--|--------------------------------|
------10--------------------------|--5----------5---5--7--7--7--5--|
--12------------------------------|------5h-7----------------------|
----------------------------------|--------------------------------|
----------------------------------|--------------------------------|
   
---------------------------|-------------------------|
---------------------------|-------------------------|
--4-----------0--2--2b--2--|--(2)----0-2-2--0--------|
---------0h-2--------------|-------------------3--0--|
---------------------------|-------------------------|
---------------------------|-------------------------|
   
--------------10--12------13------|--------------------------------|
----------10----------11------11--|--------------------------------|
------10--------------------------|--5----------5---5--7--7--7--5--|
--12------------------------------|------5h-7----------------------|
----------------------------------|--------------------------------|
----------------------------------|--------------------------------|
   
---------------------------|-------------------------|
---------------------------|-------------------------|
--4-----------0--2--2b--2--|--(2)----0-2-2--0--------|
---------0h-2--------------|-------------------3--0--|
---------------------------|-------------------------|
---------------------------|-------------------------|

--------------10--12------13------|--------------------------------|
----------10----------11------11--|--------------------------------|
------10--------------------------|--5----------5---5--7--7--7--5--|
--12------------------------------|------5h-7----------------------|
----------------------------------|--------------------------------|
----------------------------------|--------------------------------|
   
---------------------------|-------------------------|
---------------------------|-------------------------|
--4-----------0--2--2b--2--|--(2)----0-2-2--0--------|
---------0h-2--------------|-------------------3--0--|
---------------------------|-------------------------|
---------------------------|-------------------------|
   
--------------10--12------13------|--------------------------------|
----------10----------11------11--|--------------------------------|
------10--------------------------|--5----------5---5--7--7--7--5--|
--12------------------------------|------5h-7----------------------|
----------------------------------|--------------------------------|
----------------------------------|--------------------------------|
   
---------------------------|-------------------------|
---------------------------|-------------------------|
--4-----------0--2--2b--2--|--(2)----0-2-2--0--------|
---------0h-2--------------|-------------------3--0--|
---------------------------|-------------------------|
---------------------------|-------------------------|
   
--------------10--12------13------|-----0-----------0-----0--|
----------10----------11------11--|--------1-----1-----------|
------10--------------------------|--2--------1--------0-----|
--12------------------------------|--------------------------|
----------------------------------|--------------------------|
----------------------------------|--------------------------|
   
-----------0---0---------||------------------------------|
--1-----3-----------3----||-----------------1--3--3b--3--|
-------------------------||*----------0-----0--0---------|
-----4-------------------||*-----0h-2--------------------|
-------------------------||---3----------3---------------|
-------------------------||------------------------------|
   
--------2--2--------------------|--------0--0-------------------|
------1------1-----1--3--3b--3--|------1------1-----1--3--1--0--|
----2----------2---2--2---------|----2----------2---2--2--2--0--|
--0--------------0--------------|--3--------------3-------------|
--------------------------------|-------------------------------|
--------------------------------|-------------------------------|
  
--------0--0---------0------------||---------------------------------|
----0--------0---0----------------||--5--5-5------5--5-------5-5-5-5-|
--2------------1---------0-------*||--5--5-5------5--5-------5-5-5-5-|
------2------------2-------------*||--5--5-5-5h-7-5--5--5h-7-5-5-5-5-|
----------------------------0h-2--||---------------------------------|
----------------------------------||---------------------------------|
  
----------------------------------|
--8---7-7-7-7-7-7-7-7-7-8-7-7-7-7-|
--5---5-5-5-5-5-5-5-5-5-5-5-5-5-5-|
--7---7-7-7-7-7-7-7-7-7-7-7-7-7-7-|
----------------------------------|
----------------------------------|
   
----------------------------------------------|
--10---10-10----10-10-10------------10-10-10--|
--10---10-10----10-10-10-12--12--12-10-10-10--|
--10---10-10----10-10-10------------10-10-10--|
----------------------------------------------|
----------------------------------------------|
  
----------------------------------|---------------------------------|
--9-9-9-9-9-9-9-9-9-9-9-9-9-9-9-9-|--5--5-5------5--5-------5-5-5-5-|
--9-9-9-9-9-9-9-9-9-9-9-9-9-9-9-9-|--5--5-5------5--5-------5-5-5-5-|
--9-9-9-9-9-9-9-9-9-9-9-9-9-9-9-9-|--5--5-5-5h-7-5--5--5h-7-5-5-5-5-|
--7-7-7-7-7-7-7-7-7-7-7-7-7-7-7-7-|---------------------------------|
----------------------------------|---------------------------------|
  
----------------------------------|
--8---7-7-7-7-7-7-7-7-7-8-7-7-7-7-|
--5---5-5-5-5-5-5-5-5-5-5-5-5-5-5-|
--7---7-7-7-7-7-7-7-7-7-7-7-7-7-7-|
----------------------------------|
----------------------------------|
   
----------------------------------------------|
--10---10-10----10-10-10------------10-10-10--|
--10---10-10----10-10-10-12--12--12-10-10-10--|
--10---10-10----10-10-10------------10-10-10--|
----------------------------------------------|
----------------------------------------------|

----------------------------------||-------------------------------|
--9-9-9-9-9-9-9-9-9-9-9-9-9-9-9-9-||---15b----15b----15--13----15--|
--9-9-9-9-9-9-9-9-9-9-9-9-9-9-9-9-||*------------------------------|
--9-9-9-9-9-9-9-9-9-9-9-9-9-9-9-9-||*------------------------------|
--7-7-7-7-7-7-7-7-7-7-7-7-7-7-7-7-||-------------------------------|
----------------------------------||-------------------------------|
   
---------------------------------|---------------------------------|
-(15)-13--------15b--15--13--15--|--(15)-13--------------------12--|
----------14---------------------|-----------14----14--14--14------|
---------------------------------|---------------------------------|
---------------------------------|---------------------------------|
---------------------------------|---------------------------------|


   
------------------------------------|------------------------------|
-(12)-12--12--13---13--15p--13--15--|--15b----15b----15--13----15--|
------------------------------------|------------------------------|
------------------------------------|------------------------------|
------------------------------------|------------------------------|
------------------------------------|------------------------------|


   
---------------------------------|--------------------------------|
-(15)-13--------15b--15--13--15--|-(15)-13--------------------12--|
----------14---------------------|----------14----14--14--14------|
---------------------------------|--------------------------------|
---------------------------------|--------------------------------|
---------------------------------|--------------------------------|


                   
-------------------------------------||
-(12)-12--12--13---13--15p--13--15---||
------------------------------------*||
------------------------------------*||
-------------------------------------||
-------------------------------------||





Comments


Popular Suede tabs & chords
Heroine Chords
Rainy Day Girl Chords
Sam Chords
She's In Fashion Chords
Streetlife Chords
The Living Dead Chords
Stay Together 1 Tabs
We Are The Pigs Tabs
Morning Ukulele
Shes In Fashion Ukulele


Song lyrics



↑ Back to top | Tablatures and chords are parodies/interpretations of the original songs. You may use it for private study, scholarship, research or language learning purposes only
© 2014 AZChords.com Contact us | Privacy policy | DMCA | Add/correct tabs | Request tabs | Top 50 tabs