» » »

Beautiful Ones Bass tabs (ver.2)

Artists:  A B C D E F G H I J K L M N O P Q R S T U V W X Y Z # 

Beautiful Ones Bass tabs (ver.2)

Suede
Rating:
0/5 (0 votes)

Hard to play? Try these video lessons and learn fast.
                This is 100% right!

Intro & 1st verse:
G|----------------------------------------------------------------------|
D|----------------------------------------------------------------------|
A|3-3--0h1-3-3------5-5------5-5--5h7-8-8--5h7-8-8--3p1-3-3--1/3--------|x4
E|--------------5h6------5h6-------------------------------------5-0-1--|

G|---------------------------------------------------------------------------|
D|---------------------------------------------------------------------------|
A|3-3--0h1-3-3------5-5------5-5--5h7-8-8--5h7-8-8--3p1-3-3--1/3-------------|
E|--------------5h6------5h6-------------------------------------5-0-/(12)\--|

Chorus:
G|-----------------------------------------------------|
D|-------3-5-1----------------3--x--3--1--------2------|
A|3--3-3-----------3---3-5-3-------------3----------3--|x2
E|--------------0----0---------------------5--3---1----|

G|---------------------|
D|---------------------|
A|----------5-5-5p3p1--|
E|3~--------^-^-^-^-^--|
           Play quietly

Verse2:
G|----------------------------------------------------------------------|
D|----------------------------------------------------------------------|
A|3-3--0h1-3-3------5-5------5-5--5h7-8-8--5h7-8-8--3p1-3-3--1/3--------|
E|--------------5h6------5h6-------------------------------------5-0-1--|

G|----------------------------------------/10-8-7----------------------------|
D|---------------------------------------------------------------------------|
A|3-3--0h1-3-3------5-5------5-5--5h7-8-8---------3p1-3-3--1/3---------------|
E|--------------5h6------5h6-------------------------------------5-/(12)\----|

Chorus:
G|-----------------------------------------------------|
D|-------3-5-1----------------3--x--3--1--------2------|
A|3--3-3-----------3---3-5-3-------------3----------3--|x2
E|--------------0----0---------------------5--3---1----|

Bridge:
G|-----------------------------------------------------|
D|-------3-5-1----------------3--x--3--1--------2------|
A|3--3-3-----------3---3-5-3-------------3----------3--|x4
E|--------------0----0---------------------5--3---1----|

G|---------------------|
D|---------------------|
A|----------5-5-5p3p1--|
E|3~--------^-^-^-^-^--|

Outro:
G|----------------------------------------------------------------------|
D|----------------------------------------------------------------------|
A|3-3--0h1-3-3------5-5------5-5--5h7-8-8--5h7-8-8--3p1-3-3--1/3--------|
E|--------------5h6------5h6-------------------------------------5-0-1--|

G|----------------------------------------------------------------------|
D|----------------------------------------------------------------------|
A|3-3--0h1-3-3------5-5------5-5\-5h7-8-8--5h7-8-8--3p1-3-3--1/3--------|
E|--------------5h6------5h6-------------------------------------5-0-1--|

G|------------------------------------------------------------------------|
D|---------5-5---------------7-7---------------10-10----------------------|
A|3-3--0h1----------5-5-----------5h7-8-8--5h7--------3p1-3-3--1/3--------|
E|--------------5h6------5h6---------------------------------------5-0-1--|

Repeat ALL this sequence untill the end.
            
Hard to play? Try these video lessons and learn fast. | Correct




comments powered by Disqus
↑ Back to top | Tablatures and chords are parodies/interpretations of the original songs. You may use it for private study, scholarship, research or language learning purposes only