» » »

Animal Lover Bass tabs (ver.1)

Artists:  A B C D E F G H I J K L M N O P Q R S T U V W X Y Z # 

Animal Lover Bass tabs (ver.1)

Suede
Rating:
0/5 (0 votes)

Hard to play? Try these video lessons and learn fast.
                (from the debut selftitled album)


if you liked this tabb or you have other suede bass tabs, Email me!

Enjoy!


Riff A:

G|------------------|
D|----------4-4-2---|
A|----------------2-|
E|--/12\0-0---------|

Riff B:


G|------------------------------------------|
D|--------2-----2-----2-2-0h2-----4-----2-4-|
A|-44-2-4---2-4---2-----------2-4---2-4-----|
E|------------------0-----------------------|

Riff C:

G|--------------------------------1-----1-|
D|--------2-----2-----2-2-0h2-2-4---2-4---|
A|-44-2-4---2-4---2-----------------------|
E|------------------0---------------------|

Riff D:

G|-------------------------------------------|
D|-4-4-2h4-2h4-6-6-4h6-3h6-2-2-2242----------|
A|----------------------------------2-2-2242-|
E|-------------------------------------------|

G|-------------------------------4---|
D|-4-4-2h4-2h4-6-6-4h6-4h6-6-6-6---6-|
A|-----------------------------------|
E|-----------------------------------|

Riff E:

G|----------------------------------------|
D|-------2--------------------------------|
A|-4-4-44-4-2-2-2242----------4--4-4--4-4-|
E|-------------------2-2-2242-------------|


Intro: Riff A X 1
       Riff B X 2

Verse 1: Riff B X 3
         Riff C X 1

Chorus 1: Riff D X 1

Verse 2: Riff B X 3
         Riff C X 1

Chrous 2: Riff D X 1
          Riff E until solo

Bass and guitar solo:

Riff E X 2, then:

G|----------------------------------------|
D|-------2--------------------------------|
A|-4-4-44-4-2-2-2242----------4--44-22----|
E|-------------------2-2-2242----------44-|

G|------------------------------------------|
D|-------2-------------------------11-22-44-|
A|-4-4-44-4-2-2-2242----------4-44----------|
E|-------------------2-2-2242---------------|

G|----------------------------------------|
D|----2-----------------------------------|
A|-4~--4-2-2-2242-------------4--4-4--4-4-|
E|-------------------2-2-2242-------------|


Then Play Riff E until the end.....
            
Hard to play? Try these video lessons and learn fast. | Correct




comments powered by Disqus
↑ Back to top | Tablatures and chords are parodies/interpretations of the original songs. You may use it for private study, scholarship, research or language learning purposes only