>
 >
Wehe Stunde

Wehe Stunde Guitar Tabs

Subway To Sally - Wehe Stunde chords, tabs, tablatures, lyrics

Guitar lessons | Add/correct | Request | Top 50 tabs Artists:  A B C D E F G H I J K L M N O P Q R S T U V W X Y Z 0-9

Wehe Stunde Guitar Tabs – Subway To Sally

CD, Sheet music, Poster

Do you like Wehe Stunde? Share with your friends now
Tabs




Gtr I (E A D G B E) - 'Ingo - Geierleier'
Gtr II (E A D G B E) - 'Frau Schmidt - Geige / Eric Fish - Flöte'

Q=104
 4/4

 (00:18)
 Intro (Chorus)
  Gtr II
  Q  E Q  Q  +E    Q  E Q  +E  Q    Q  E Q  Q  +E    Q  E Q  +E  Q
|-6--5-6--8--(8)-|-5--------------|---------5--(5)-|-5--6--------5---|
|----------------|----8-6--(6)----|-8--6-----------|------8--(8)-----|
|----------------|-------------7--|------7---------|-----------------|
|----------------|----------------|----------------|-----------------|
|----------------|----------------|----------------|-----------------|
|----------------|----------------|----------------|-----------------|


  Q  E Q  Q  +E     Q  E Q  +E  Q    H    +Q   +E  E   Q  E Q  +E  Q
|-6--5-6--8--(8)-|-10--8-6--(6)-8--|-----------------|-5----6--(6)-5--|
|----------------|-----------------|-8----(8)--(8)-8-|----8-----------|
|----------------|-----------------|-----------------|----------------|
|----------------|-----------------|-----------------|----------------|
|----------------|-----------------|-----------------|----------------|
|----------------|-----------------|-----------------|----------------|


  Q  +E  S S H      +W
|-5--(5)-6p5------|--------|
|------------8----|-(8)----|
|-----------------|--------|
|-----------------|--------|
|-----------------|--------|
|-----------------|--------|

 (00:42):
 Verse I
  Gtr I
   W           W           H    Q  Q     Q.   E Q  Q
|-----------|-----------|-------------|------------1--|
|-^3--------|-^3--------|-^3----1-----|-^1----3-4-----|
|-^2--------|-^2--------|-^2-------3--|-^0------------|
|-^0--------|-^0--------|-^0----------|-^1------------|
|-----------|-----------|-------------|-^3------------|
|-----------|-----------|-------------|---------------|


   Q.   E Q  Q     Q.   E T T Q E.    H    Q  Q     Q.    H    +E
|---------3--5--|-^1---------------|-------------|-----------------|
|-^3----1-------|-^1----4-3h4p3----|-^3----1-----|-^1----!1----(1)-|
|-^2------------|-^2---------------|-^2-------3--|-^0----!0----(0)-|
|-^0------------|-^3---------------|-^0----------|-^1----!1----(1)-|
|---------------|------------------|-------------|-^3----!3----(3)-|
|---------------|------------------|-------------|-----------------|


  H       H      Q  +E  E H       H    Q  Q    Q  +E  E Q  Q
|--------------|---------------|-------------|-------------1--|
|-3tr4----3----|-3--(3)-4-3----|-^3----1-----|-1--(1)-3-4-----|
|--------------|---------------|-^2-------3--|----------------|
|--------------|---------------|-^0----------|----------------|
|--------------|---------------|-------------|----------------|
|--------------|---------------|-------------|----------------|


   Q.   E Q  Q      H    H      H    Q  Q     H..       S S
|---------3--5--|-^13----1----|-1----------|-----------------|
|-^3----1-------|-^-1---------|------4--3--|-^3---------4p3--|
|-^2------------|-------------|------------|-^2--------------|
|-^0------------|-------------|------------|-^0--------------|
|---------------|-------------|------------|-----------------|
|---------------|-------------|------------|-----------------|


  H    H
|-----------|
|-----------|
|-5---------|
|------3----|
|-----------|
|-----------|

 (1:20):
 Chorus is played again

 (1:44):
 Verse II
  Gtr I
   W           W           H    Q  Q     Q.   E Q  Q
|-----------|-----------|-------------|------------1--|
|-^3--------|-^3--------|-^3----1-----|-^1----3-4-----|
|-^2--------|-^2--------|-^2-------3--|-^0------------|
|-^0--------|-^0--------|-^0----------|-^1------------|
|-----------|-----------|-------------|-^3------------|
|-----------|-----------|-------------|---------------|


   Q.   E Q  Q     Q  +E  E T T Q E.    H    Q  Q     Q.    H    +E
|---------3--5--|-^1--(1)------------|-------------|-------!3----(3)-|
|-^3----1-------|-^1------4-3h4p3----|-^3----1-----|-^1----!1----(1)-|
|-^2------------|-^2-----------------|-^2-------3--|-^0----!0----(0)-|
|-^0------------|-^3-----------------|-^0----------|-^1----!1----(1)-|
|---------------|--------------------|-------------|-^3----!3----(3)-|
|---------------|--------------------|-------------|-----------------|

  W             Q  +E  E E E E E   E E E E Q  Q    Q.   E Q  Q
|-------------|------------------|---1-----------|-----------1--|
|-3tr4--------|-3--(3)-1-3-4-3-1-|-3---4-3-1-----|-1----3-4-----|
|-------------|------------------|------------3--|--------------|
|-------------|------------------|---------------|--------------|
|-------------|------------------|---------------|--------------|
|-------------|------------------|---------------|--------------|


   Q.   E Q  Q     H    H      H    Q  Q     H..       S S
|---------3--5--|-^3----1----|-1----------|-----------------|
|-^3----1-------|-^1---------|------4--3--|-^3---------4p3--|
|-^2------------|------------|------------|-^2--------------|
|-^0------------|------------|------------|-^0--------------|
|---------------|------------|------------|-----------------|
|---------------|------------|------------|-----------------|


  H    H
|-----------*|
|-----------*|
|-5---------*|
|------3----*|
|-----------*|
|-----------*|

After this the chorus is played again, then the bridge (maybe someone can tab the chords 
this part?!), and the chorus again, one (whole) tone higher.
The "Geierleier" (or "Laute", I don't know) only plays the two verses, but you can play 
melody in the chorus, if you want to.


Duration Legend
---------------
W - whole; H - half; Q - quarter; E - 8th; S - 16th; T - 32nd; X - 64th; a - acciaccatura
+ - note tied to previous; . - note dotted; .. - note double dotted
Uncapitalized letters represent notes that are staccato (1/2 duration)
Irregular groupings are notated above the duration line
Duration letters will always appear directly above the note/fret number it represents the
duration for.  Duration letters with no fret number below them represent rests.  Multi-
bar rests are notated in the form Wxn, where n is the number of bars to rest for.  Low
melody durations appear below the staff

Tablature Legend
----------------
 h   - hammer-on
 p   - pull-off
 b   - bend
 pb  - pre-bend
 r   - bend release (if no number after the r, then release immediately)
 /\  - slide into or out of (from/to "nowhere")
 s   - legato slide
 S   - shift slide
  - natural harmonic
[n]  - artificial harmonic
n(n) - tapped harmonic
 ~   - vibrato
 tr  - trill
 T   - tap
 TP  - trem. picking
 PM  - palm muting
\n/  - tremolo bar dip; n = amount to dip
 \n  - tremolo bar down
 n/  - tremolo bar up
/n\  - tremolo bar inverted dip
 =   - hold bend; also acts as connecting device for hammers/pulls
 <>  - volume swell (louder/softer)
 x   - on rhythm slash represents muted slash
 o   - on rhythm slash represents single note slash

Misc Legend
-----------
 |  - bar
||  - double bar
||o - repeat start
o|| - repeat end
*|  - double bar (ending)
 :  - bar (freetime)
 $  - Segno
 &  - Coda
Tempo markers -  = BPM(8/16=s8/s16), where s8 = swing 8ths, s16 = swing 16ths





Comments


Popular Subway To Sally tabs & chords
Kleid Aus Rosen Chords
Kleid Aus Rosen 2 Chords
Ohne Liebe Chords
Tanz Des Todes Chords
Wenn Engel Hassen Chords
Feuerkind Intro Tabs
Abendlied Ukulele
Auf Kiel Ukulele
Minne Ukulele
So Rot Ukulele


Song lyrics



↑ Back to top | Tablatures and chords are parodies/interpretations of the original songs. You may use it for private study, scholarship, research or language learning purposes only
© 2014 AZChords.com Contact us | Privacy policy | DMCA | Add/correct tabs | Request tabs | Top 50 tabs