» » »

Subway To Sally, Vater Tabs (ver.1)

Artists:  A B C D E F G H I J K L M N O P Q R S T U V W X Y Z # 

Vater Tabs (ver.1)

Subway To Sally Tabs
 Rating:
4/5 (4 votes)
Vater lessons Tabs too difficult? Try these video lessons and learn fast
1
                


Duration Legend
---------------
W - whole
H - half
Q - quarter
E - 8th

4/4     



Intro (Chorus 1+2):

D  F#m C G 
D  F#m C G 
D  F#m F Em 
Eb Eb  G G   

Intro/Outro/Verse 1/2:

      ^                                           ^                                       
      Q    Q    Q    Q       H        H           H.           Q       H        H         
E||-----------------------|--5-----------------|---------------6----|--5-----------------|
B||---6--------------8----|-----------6--------|--------------------|-----------6--------|
G||*--7-------------------|--------------------|--7-----------------|--------------------|
D||*-------7----8---------|--------------------|--5-----------------|--------------------|
A||---5-------------------|--------------------|--5-----------------|--------------------|
E||---5-------------------|--------------------|--------------------|--------------------|

  ^                                           ^                                              
  Q    Q    Q    Q       H        H           Q    Q    Q    Q       Q.     E  E  E  Q       
----------------------|--5-----------------|-----------------6----|--5------6--5-----------||
--6--------------8----|-----------6--------|----------------------|---------------8--6-----||
--7-------------------|--------------------|--7----5--------------|-----------------------*||
-------7----8---------|--------------------|--5---------8---------|-----------------------*||
--5-------------------|--------------------|--5-------------------|------------------------||
--5-------------------|--------------------|----------------------|------------------------||

  ^                                           ^                                       
  Q    Q    Q    Q       H        H           H.           Q       H        H         
----------------------|--5-----------------|---------------6----|--5-----------------|
--6--------------8----|-----------6--------|--------------------|-----------8--------|
--7-------------------|--------------------|--7-----------------|--------------------|
-------7----8---------|--------------------|--7-----------------|--------------------|
--5-------------------|--------------------|--5-----------------|--------------------|
--5-------------------|--------------------|--------------------|--------------------|

  ^                                           ^                                         
  Q    Q    Q    Q       H        H           Q    Q    H    Q      H        Q    Q       W
----------------------|--------------------|---------------------|---------------------|---------||
--6--------------6----|--5-----------------|---------------------|-----------5----6----|--5------||
--7-------------------|-----------7--------|--7---------7--------|--7------------------|---------||
-------7----8---------|--------------------|--5----7---------7---|---------------------|---------||
--5-------------------|--------------------|--5------------------|---------------------|---------||
--5-------------------|--------------------|---------------------|---------------------|---------||

Bridge:

G F Dm Dm    
G F Em C
G F Dm Dm    
G F C  C

Chorus 3:

F Em Eb A# | x4
F Em Ab G

C# A# | x2
            
Submit corrections

comments powered by Disqus
↑ Back to top | Subway To Sally Tabs for Vater. Lyrics for acoustic guitar and electric guitar. 1 Tablatures and chords are parodies/interpretations of the original songs. You may use it for private study, scholarship, research or language learning purposes only