» » »

Subway To Sally, Sieben Original Spiel Tabs (ver.1)

Artists:  A B C D E F G H I J K L M N O P Q R S T U V W X Y Z # 

Sieben Original Spiel Tabs (ver.1)

Subway To Sally Tabs
 Rating:
4/5 (4 votes)
Sieben Original Spiel lessons Tabs too difficult? Try these video lessons and learn fast
1
                Saitenstimmung:

C-G-C-F-A-D

x = wird nicht gespielt

Intro:
C ----------------------               -----------------|
G -2---------0---------                -2---------0-----|
C ----------------------     D H9 Hm   -----------------|
F -------------------2--               ------------2----|
A --------3--2-3-2-0---                --------3--2-----|
D -2-3-2-0--------------               -2-3-2-0---------|


Verse:
Powerchords:

     H          G/F#             F#    A
C -----------------5--5--5-5--5--4--4--8-8--|
G -2--2--2-2--2-2--5--5-5--5--5--4--4--8-8--|
C -4--4--4-4--4-4--4--4--4-4--4--4--4--8-8--|
F -4--4--4-4--4-4--x--x--x-x--x--x-x--x-x---|                       2Mal


Bridge:

C -5-------------------4---------------------5-----------|
G -------------0-------------------2---------------------|
C ----0------0---4-------0-------0---4-----4----0------0-|
F --------0----------6---------6----------4---------0----|
A ------3----------3---------3----------3---------3------|
D -------------------------------------------------------|
   F# A    Ref.:
C -4-----|       Powerchord:
G -4-----|       Hm  G/F# F# E F# E F# E F# E F# E F# E 2mal
C -4--2--|       (F# E nur einen Schlag und immer abwechselnd)
F ----2--|       Hm A
A ----2--|
D -------|

Bridge

and so on

Emanuel Leuthner Grüße aus Wien
"Sieben E-Gitarre"
            
Submit corrections

comments powered by Disqus
↑ Back to top | Subway To Sally Tabs for Sieben Original Spiel. Lyrics for acoustic guitar and electric guitar. 1 Tablatures and chords are parodies/interpretations of the original songs. You may use it for private study, scholarship, research or language learning purposes only