>
 >
In Der Stille

In Der Stille Guitar Tabs

Subway To Sally - In Der Stille chords, tabs, tablatures, lyrics

Guitar lessons | Add/correct | Request | Top 50 tabs Artists:  A B C D E F G H I J K L M N O P Q R S T U V W X Y Z 0-9

In Der Stille Guitar Tabs – Subway To Sally

CD, Sheet music, Poster

Do you like In Der Stille? Share with your friends now
Tabs
IN DER STILLE... hab ich mal, weil ich außnahmsweise Zeit hatte, versucht den letzten 
vom Bastard rauszuhören. Ist aber mehr eine Interpretation als völlig korrekte Noten, also 
eine Spiel-Hilfe.
Für die Leute die mal wieder nicht wissen wie man sich Powertab runterläd hab  ich hier 
normalen tab, kann aber auch gerne noch den Powertab bei Bedarf nachträgchlich hochladen.
Wenn ich weitere Zeit finde, werde ich sowieso noch Verbesserungen vornehmen...

Bei Fragen oder Ähnlichem:


Lang lebe Subway to Sally *__* !!!
Viel Spaß!

IN DER STILLE

Gtr I   - Laute (Ingo)
Gtr II  - Geige (Frau Schmitt)
Gtr III - Flöte (Eric)

W - whole; H - half; Q - quarter; E - 8th; S - 16th; T - 32nd; X - 64th;


  Q=100

 Inro (Geige)
 3/4
  Gtr I
|---------|---------|---------|---------|
|---------|---------|---------|---------|
|---------|---------|---------|---------|
|---------|---------|---------|---------|
|---------|---------|---------|---------|
|---------|---------|---------|---------|
|
| Gtr II
| H    Q    H    Q    H    Q    H    Q
|---------|---------|---------|---------|
|---------|---------|---------|---------|
|---------|---------|-6----7--|-6-------|
|-7----9--|-6-------|---------|------7--|
|---------|------7--|---------|---------|
|---------|---------|---------|---------|


 3/4
|---------|---------|------------|-----------|
|---------|---------|------------|-----------|
|---------|---------|------------|-----------|
|---------|---------|------------|-----------|
|---------|---------|------------|-----------|
|---------|---------|------------|-----------|
|
| H    Q    H    Q     Q  Q  E E   +Q   H
|---------|---------|------------|-----------|
|---------|---------|-----7------|-----------|
|-9----7--|-6-------|--------9-7-|-(7)--6----|
|---------|------7--|------------|-----------|
|---------|---------|-10---------|-----------|
|---------|---------|------------|-----------|

|------|
|------|
|------|
|------|
|------|
|------|
|
| H
|------|
|------|
|------|
|-7----|
|------|
|------|


 4/4
                                        |-3-|
   W            Q  Q  Q  Q     Q  +E  E S S S E Q     Q.   E E E Q
|-^7---------|-^5--3--------|-^2--(2)-3-2h3p2------|-^2--------------|
|-^7---------|-^5-----3--5--|-^3--(3)---------5-3--|-^2--------------|
|-^4---------|-^4-----------|-^4--(4)--------------|-^2--------------|
|-^4---------|-^2-----------|-^4--(4)--------------|-^4----5-4-------|
|------------|--------------|-^2--(2)--------------|-^4--------7-5---|
|------------|--------------|----------------------|-^2--------------|
|
| Gtrs II, III
|  H    H       Q  Q  Q  Q     Q  +E  E E     E Q     W
|--7---------|--------------|----------------------|-----------------|
|-------7----|-10--8--------|--7--(7)-8-7----------|-----------------|
|------------|--------7--9--|-----------------9-7--|--6--------------|
|------------|--------------|----------------------|-----------------|
|------------|--------------|----------------------|-----------------|
|------------|--------------|----------------------|-----------------|


                                        |-3-|
   W            Q  Q  Q  Q     Q  +E  E S S S E  Q     W
|-^7---------|-^5--3--------|-^2--(2)-3-2h3p2----5--|-^2----|
|-^7---------|-^5-----3--5--|-^3--(3)---------5-----|-^2----|
|-^4---------|-^4-----------|-^4--(4)---------------|-^2----|
|-^4---------|-^2-----------|-^4--(4)---------------|-^4----|
|------------|--------------|-^2--(2)---------------|-^4----|
|------------|--------------|-----------------------|-^2----|
|
|  H    H       Q  Q  Q  Q     Q  +E  E E     E  Q     W
|--7---------|--------------|-----------------------|-------|
|-------7----|-10--8--------|--7--(7)-8-7-------10--|--7----|
|------------|--------7--9--|-----------------9-----|-------|
|------------|--------------|-----------------------|-------|
|------------|--------------|-----------------------|-------|
|------------|--------------|-----------------------|-------|


 Verse1
   W           Q  H.         H    Q  Q     W
|-----------|-^5--3-------|-^2----------|-------|
|-^3--------|-^5----------|-^3----5--3--|-^2----|
|-^4--------|-^4----------|-^4----------|-^2----|
|-^4--------|-^2----------|-^4----------|-^4----|
|-^2--------|-------------|-^2----------|-^4----|
|-----------|-------------|-------------|-^2----|
|
|-----------|-------------|-------------|-------|
|-----------|-------------|-------------|-------|
|-----------|-------------|-------------|-------|
|-----------|-------------|-------------|-------|
|-----------|-------------|-------------|-------|
|-----------|-------------|-------------|-------|


              PM
                                           |-3-|
   E E E E Q  Q     Q  H.         Q  +E  E S S S +E  Q     W
|----------2--7--|-^5--3-------|-^2--(2)-3-2h3p2-(2)-5--|-^2----|
|-^3-2-3-5-------|-^5----------|-^3--(3)----------------|-^2----|
|-^4-------------|-^4----------|-^4--(4)----------------|-^2----|
|-^4-------------|-^2----------|-^4--(4)----------------|-^4----|
|-^2-------------|-------------|-^2--(2)----------------|-^4----|
|----------------|-------------|------------------------|-^2----|
|
|----------------|-------------|------------------------|-------|
|----------------|-------------|------------------------|-------|
|----------------|-------------|------------------------|-------|
|----------------|-------------|------------------------|-------|
|----------------|-------------|------------------------|-------|
|----------------|-------------|------------------------|-------|


 Chorus
                                        |-3-|
   W            Q  Q  Q  Q     Q  +E  E S S S E Q     Q.   E E E Q
|-^7---------|-^5--3--------|-^2--(2)-3-2h3p2------|-^2-------------|
|-^7---------|-^5-----3--5--|-^3--(3)---------5-3--|-^2-------------|
|-^4---------|-^4-----------|-^4--(4)--------------|-^2-------------|
|-^4---------|-^2-----------|-^4--(4)--------------|-^4----5-4------|
|------------|--------------|-^2--(2)--------------|-^4--------7-5--|
|------------|--------------|----------------------|-^2-------------|
|
|  H    H       Q  Q  Q  Q     Q  +E  E E     E Q     W
|--7---------|--------------|----------------------|----------------|
|-------7----|-10--8--------|--7--(7)-8-7----------|----------------|
|------------|--------7--9--|-----------------9-7--|--6-------------|
|------------|--------------|----------------------|----------------|
|------------|--------------|----------------------|----------------|
|------------|--------------|----------------------|----------------|


                                        |-3-|
   W            Q  Q  Q  Q     Q  +E  E S S S E  Q     W
|-^7---------|-^5--3--------|-^2--(2)-3-2h3p2----5--|-^2----|
|-^7---------|-^5-----3--5--|-^3--(3)---------5-----|-^2----|
|-^4---------|-^4-----------|-^4--(4)---------------|-^2----|
|-^4---------|-^2-----------|-^4--(4)---------------|-^4----|
|------------|--------------|-^2--(2)---------------|-^4----|
|------------|--------------|-----------------------|-^2----|
|
|  H    H       Q  Q  Q  Q     Q  +E  E E     E  Q     W
|--7---------|--------------|-----------------------|-------|
|-------7----|-10--8--------|--7--(7)-8-7-------10--|--7----|
|------------|--------7--9--|-----------------9-----|-------|
|------------|--------------|-----------------------|-------|
|------------|--------------|-----------------------|-------|
|------------|--------------|-----------------------|-------|


 Verse2
   W           Q  H.         H    Q  Q     W
|-----------|-^5--3-------|-^2----------|-------------|
|-^3--------|-^5----------|-^3----5--3--|-^2----------|
|-^4--------|-^4----------|-^4----------|-^2----------|
|-^4--------|-^2----------|-^4----------|-^4----------|
|-^2--------|-------------|-^2----------|-^4----------|
|-----------|-------------|-------------|-^2----------|
|
| Gtr II
|                                          H.      Q
|-----------|-------------|-------------|-------------|
|-----------|-------------|-------------|----------2--|
|-----------|-------------|-------------|-------------|
|-----------|-------------|-------------|-------------|
|-----------|-------------|-------------|-------------|
|-----------|-------------|-------------|-------------|


                PM
                                               |-3-|
   E E E E  Q   Q     Q   H.          Q  +E  E S S S +E  Q     W
|-----------2---7--|-^5---3--------|-^2--(2)-3-2h3p2-(2)-5--|-^2-----|
|-^3-2-3-5---------|-^5------------|-^3--(3)----------------|-^2-----|
|-^4---------------|-^4------------|-^4--(4)----------------|-^2-----|
|-^4---------------|-^2------------|-^4--(4)----------------|-^4-----|
|-^2---------------|---------------|-^2--(2)----------------|-^4-----|
|------------------|---------------|------------------------|-^2-----|
|
|           >
|  H       +H         H.        Q     W                       +W
|------------------|---------------|------------------------|--------|
|--3-------(3)-----|------------2--|--3---------------------|-(3)----|
|------------------|---------------|------------------------|--------|
|------------------|---------------|------------------------|--------|
|------------------|---------------|------------------------|--------|
|------------------|---------------|------------------------|--------|


 Bridge
  Q  Q  E E +Q     Q  Q  E E +Q     Q  Q  E E +Q     Q  Q  E E +Q
|----2-----------|----2-----------|----------------|----------------|
|-------5-3-(3)--|-------5-3-(3)--|----3--5-2-(2)--|-------2--------|
|----------------|-4--------------|-4--------------|-2--4----2-(2)--|
|----------------|----------------|----------------|----------------|
|----------------|----------------|----------------|----------------|
|----------------|----------------|----------------|----------------|
|
| Q  Q  E E +Q     Q  Q  E E +Q     Q  Q  E E +Q     Q  Q  E E +Q
|----------------|----------------|----------------|----------------|
|----7-----------|----7-----------|----------------|----------------|
|-7-----9-7-(7)--|-------9-7-(7)--|----7--9-6-(6)--|-------6--------|
|----------------|-9--------------|-9--------------|-7--9----7-(7)--|
|----------------|----------------|----------------|----------------|
|----------------|----------------|----------------|----------------|


  Q  Q  E E +Q     Q  Q  E E +Q     Q   Q  E E +Q     Q  H    Q
|----2-----------|----2-----------|-----5--3-2-(2)--|---------2--|
|-------5-3-(3)--|-------5-3-(3)--|-3---------------|-3--5-------|
|-2--------------|-4--------------|-----------------|------------|
|----------------|----------------|-----------------|------------|
|----------------|----------------|-----------------|------------|
|----------------|----------------|-----------------|------------|
|
| Q  Q  E E +Q     Q  Q  E E +Q     Q   Q  E E +Q     Q  H    Q
|----------------|----------------|-----------------|------------|
|----7-----------|----7-----------|----10--8-7-(7)--|---------7--|
|-------9-7-(7)--|-------9-7-(7)--|-7---------------|-7--9-------|
|-7--------------|-9--------------|-----------------|------------|
|----------------|----------------|-----------------|------------|
|----------------|----------------|-----------------|------------|


  +Q   Q  Q  E E   +Q   H       Q
|-(2)-----2------|-----------------|
|------------5-3-|-(3)--2tr3-------|
|------4---------|--------------2--|
|----------------|-----------------|
|----------------|-----------------|
|----------------|-----------------|
|
| +Q   Q  Q  E E   +Q   H       Q
|----------------|-----------------|
|-(7)-----7------|-----------------|
|------------9-7-|-(7)--6----------|
|------9---------|--------------7--|
|----------------|-----------------|
|----------------|-----------------|


  Q
|------|
|-2----|
|------|
|------|
|------|
|------|
|
| Q
|------|
|------|
|-6----|
|------|
|------|
|------|


 Chorus
                                        |-3-|
   W            Q  Q  Q  Q     Q  +E  E S S S E Q     Q.   E E E Q
|-^7---------|-^5--3--------|-^2--(2)-3-2h3p2------|-^2-------------|
|-^7---------|-^5-----3--5--|-^3--(3)---------5-3--|-^2-------------|
|-^4---------|-^4-----------|-^4--(4)--------------|-^2-------------|
|-^4---------|-^2-----------|-^4--(4)--------------|-^4----5-4------|
|------------|--------------|-^2--(2)--------------|-^4--------7-5--|
|------------|--------------|----------------------|-^2-------------|
|
| Gtrs II, III
|  H    H       Q  Q  Q  Q     Q  +E  E E     E Q     W
|--7---------|--------------|----------------------|----------------|
|-------7----|-10--8--------|--7--(7)-8-7----------|----------------|
|------------|--------7--9--|-----------------9-7--|--6-------------|
|------------|--------------|----------------------|----------------|
|------------|--------------|----------------------|----------------|
|------------|--------------|----------------------|----------------|


                                        |-3-|
   W            Q  Q  Q  Q     Q  +E  E S S S E  Q     W
|-^7---------|-^5--3--------|-^2--(2)-3-2h3p2----5--|-^2----|
|-^7---------|-^5-----3--5--|-^3--(3)---------5-----|-^2----|
|-^4---------|-^4-----------|-^4--(4)---------------|-^2----|
|-^4---------|-^2-----------|-^4--(4)---------------|-^4----|
|------------|--------------|-^2--(2)---------------|-^4----|
|------------|--------------|-----------------------|-^2----|
|
|  H    H       Q  Q  Q  Q     Q  +E  E E     E  Q     W
|--7---------|--------------|-----------------------|-------|
|-------7----|-10--8--------|--7--(7)-8-7-------10--|--7----|
|------------|--------7--9--|-----------------9-----|-------|
|------------|--------------|-----------------------|-------|
|------------|--------------|-----------------------|-------|
|------------|--------------|-----------------------|-------|


 Verse3
   W           Q  H.         H    Q  Q     W
|-----------|-^5--3-------|-^2----------|---------------|
|-^3--------|-^5----------|-^3----5--3--|-^2------------|
|-^4--------|-^4----------|-^4----------|-^2------------|
|-^4--------|-^2----------|-^4----------|-^4------------|
|-^2--------|-------------|-^2----------|-^4------------|
|-----------|-------------|-------------|-^2------------|
|
| Gtr II
|                                             <
|                                          Q  H    +Q
|-----------|-------------|-------------|---------------|
|-----------|-------------|-------------|-----3----(3)--|
|-----------|-------------|-------------|---------------|
|-----------|-------------|-------------|---------------|
|-----------|-------------|-------------|---------------|
|-----------|-------------|-------------|---------------|


               PM
                                            |-3-|
   E  E E E Q  Q     W             Q  +E  E S S S +E  Q     W
|-----------2--7--|-^5----------|-^2--(2)-3-2h3p2-(2)-5--|-^2------------|
|-^3--2-3-5-------|-^5----------|-^3--(3)----------------|-^2------------|
|-^4--------------|-^4----------|-^4--(4)----------------|-^2------------|
|-^4--------------|-^2----------|-^4--(4)----------------|-^4------------|
|-^2--------------|-------------|-^2--(2)----------------|-^4------------|
|-----------------|-------------|------------------------|-^2------------|
|
|                                                                  >
| +W                 H.      Q     W                       +H     +H
|-----------------|-------------|------------------------|---------------|
|-(3)-------------|----------2--|--3---------------------|-(3)----(3)----|
|-----------------|-------------|------------------------|---------------|
|-----------------|-------------|------------------------|---------------|
|-----------------|-------------|------------------------|---------------|
|-----------------|-------------|------------------------|---------------|


 Bridge
  Q  Q  E E +Q     Q  Q  E E +Q     Q  Q  E E +Q     Q  Q  E E +Q
|----2-----------|----2-----------|----------------|----------------|
|-------5-3-(3)--|-------5-3-(3)--|----3--5-2-(2)--|-------2--------|
|----------------|-4--------------|-4--------------|-2--4----2-(2)--|
|----------------|----------------|----------------|----------------|
|----------------|----------------|----------------|----------------|
|----------------|----------------|----------------|----------------|
|
| Q  Q  E E +Q     Q  Q  E E +Q     Q  Q  E E +Q     Q  Q  E E +Q
|----------------|----------------|----------------|----------------|
|----7-----------|----7-----------|----------------|----------------|
|-------9-7-(7)--|-------9-7-(7)--|----7--9-6-(6)--|-------6--------|
|-9--------------|-9--------------|-9--------------|-7--9----7-(7)--|
|----------------|----------------|----------------|----------------|
|----------------|----------------|----------------|----------------|


  Q  Q  E E +Q     Q  Q  E E +Q     Q   Q  E E +Q     Q  Q  E  E  +Q
|----2-----------|----2--3-2-(2)--|-----5--3-2-(2)--|----2--3--5--(5)--|
|-------5-3-(3)--|----------------|-3---------------|-3----------------|
|-2--------------|-4--------------|-----------------|------------------|
|----------------|----------------|-----------------|------------------|
|----------------|----------------|-----------------|------------------|
|----------------|----------------|-----------------|------------------|
|
| Q  Q  E E +Q     Q  Q  E E +Q     Q   Q  E E +Q     Q  Q  E  E  +Q
|----------------|----------------|-----------------|------------------|
|----7-----------|----7--8-7-(7)--|----10--8-7-(7)--|----7--8-10-(10)--|
|-------9-7-(7)--|----------------|-7---------------|-7----------------|
|-7--------------|-9--------------|-----------------|------------------|
|----------------|----------------|-----------------|------------------|
|----------------|----------------|-----------------|------------------|


  Q
|------|
|------|
|------|
|------|
|------|
|------|


 Verse4
   Q  E  Q  Q  +E    Q   E  E +H
|------------------|---------------------|
|-^3--2-----2--(2)-|-2---3-^5-(5)--------|
|-^2-----4---------|-------^4-(4)--------|
|-^0---------------|-------^2-(2)--------|
|------------------|---------------------|
|------------------|---------------------|
|
|  Q  E  Q  Q  +E    Q   E  H        +E
|-10--9-----9--(9)-|-9--10-12-------(12)-|
|-------12---------|---------------------|
|------------------|---------------------|
|------------------|---------------------|
|------------------|---------------------|
|------------------|---------------------|


   Q   E  Q   Q   +E     Q   H     +Q
|------2--------------|-----------------|
|-^3------5---3---(3)-|-^2--------------|
|-^2------------------|-^4---4-----(4)--|
|-^0------------------|-^2--------------|
|---------------------|-----------------|
|---------------------|-----------------|
|
|  Q   E  Q   Q   +E     Q   H     +Q
|-10--14-12--10--(10)-|--9--------------|
|---------------------|-----12----(12)--|
|---------------------|-----------------|
|---------------------|-----------------|
|---------------------|-----------------|
|---------------------|-----------------|


   Q   E  Q   Q   +E     Q   E  E  +Q   Q
|-^2---0--------------|--------------------|
|-^0------3---5---(5)-|-^5---3----------2--|
|-^2------------------|-^4------2--(2)-----|
|---------------------|-^2-----------------|
|---------------------|--------------------|
|---------------------|--------------------|
|
|  Q   E  Q   Q   +E     Q   E  E  +Q   Q
|-14--12-10--12--(12)-|-12--10----------9--|
|---------------------|--------10-(10)-----|
|---------------------|--------------------|
|---------------------|--------------------|
|---------------------|--------------------|
|---------------------|--------------------|


   Q   E  Q   Q   +E     Q   H     +Q
|------2--0-----------|-----------------|
|-^3----------3---(3)-|-^2--------------|
|-^2------------------|-^4---4-----(4)--|
|-^0------------------|-^2--------------|
|---------------------|-----------------|
|---------------------|-----------------|
|
|  Q   E  Q   Q   +E     Q   H     +Q
|-10--14-12--10--(10)-|--9--------------|
|---------------------|-----12----(12)--|
|---------------------|-----------------|
|---------------------|-----------------|
|---------------------|-----------------|
|---------------------|-----------------|


   Q  E  Q  Q  +E     Q   E  E +H
|------------------|----------------------|
|-^3--2-----2--(2)-|-^2---3--5-(5)--------|
|-^2-----4---------|-^4-------------------|
|-^0---------------|-^2-------------------|
|------------------|----------------------|
|------------------|----------------------|
|
|  Q  E  Q  Q  +E     Q   E  H        +E
|-10--9-----9--(9)-|--9--10-12-------(12)-|
|-------12---------|----------------------|
|------------------|----------------------|
|------------------|----------------------|
|------------------|----------------------|
|------------------|----------------------|


   Q   E  Q   Q   +E     Q   E  E  +H
|------2--------------|-------------------|
|-^3------5---3---(3)-|-^2----------------|
|-^2------------------|-^4---4--4--(4)----|
|-^0------------------|-^2----------------|
|---------------------|-------------------|
|---------------------|-------------------|
|
|  Q   E  Q   Q   +E     Q   E  E  +H
|-10--14-12--10--(10)-|--9----------------|
|---------------------|-----12-12-(12)----|
|---------------------|-------------------|
|---------------------|-------------------|
|---------------------|-------------------|
|---------------------|-------------------|


   Q   E  Q   Q   +E     Q   E  E +Q       Q
|------2--------------|-----------------------|
|-^5------3-----------|-^5---3-------------2--|
|-^4----------4---(4)-|-^4------2-(2)---------|
|-^2------------------|-^2--------------------|
|---------------------|-----------------------|
|---------------------|-----------------------|
|
|  Q   E  Q   Q   +E     Q   E  Q      +E  Q
|-12--14-10-----------|-12--10-------------9--|
|------------12--(12)-|--------10-----(10)----|
|---------------------|-----------------------|
|---------------------|-----------------------|
|---------------------|-----------------------|
|---------------------|-----------------------|


   Q   E  Q   Q   +E     Q   H     +Q
|------2--------------|-----------------|
|-^3------5---3---(3)-|-^2--------------|
|-^2------------------|-^4---4-----(4)--|
|-^0------------------|-^2--------------|
|---------------------|-----------------|
|---------------------|-----------------|
|
|  Q   E  Q   Q   +E     Q   H     +Q
|-10--14-12--10--(10)-|--9--------------|
|---------------------|-----12----(12)--|
|---------------------|-----------------|
|---------------------|-----------------|
|---------------------|-----------------|
|---------------------|-----------------|


 Outro
   Q  E  Q  Q  +E    Q   E  E +H
|------------------|---------------------|
|-^3--2-----2--(2)-|-2---3-^5-(5)--------|
|-^2-----4---------|-------^4-(4)--------|
|-^0---------------|-------^2-(2)--------|
|------------------|---------------------|
|------------------|---------------------|
|
|  Q  E  Q  Q  +E    Q   E  H        +E
|-10--9-----9--(9)-|-9--10-12-------(12)-|
|-------12---------|---------------------|
|------------------|---------------------|
|------------------|---------------------|
|------------------|---------------------|
|------------------|---------------------|


   Q   E  Q   Q   +E     Q   H     +Q
|------2--------------|-----------------|
|-^3------5---3---(3)-|-^2--------------|
|-^2------------------|-^4---4-----(4)--|
|-^0------------------|-^2--------------|
|---------------------|-----------------|
|---------------------|-----------------|
|
|  Q   E  Q   Q   +E     Q   H     +Q
|-10--14-12--10--(10)-|--9--------------|
|---------------------|-----12----(12)--|
|---------------------|-----------------|
|---------------------|-----------------|
|---------------------|-----------------|
|---------------------|-----------------|


   Q   E  Q   Q   +E     Q   E  E +Q       Q
|-^2---0--------------|-----------------------|
|-^0------3---5---(5)-|-^5---3-------------2--|
|-^2------------------|-^4------2-(2)---------|
|---------------------|-^2--------------------|
|---------------------|-----------------------|
|---------------------|-----------------------|
|
|  Q   E  Q   Q   +E     Q   E  Q      +E  Q
|-14--12-10--12--(12)-|-12--10-------------9--|
|---------------------|--------10-----(10)----|
|---------------------|-----------------------|
|---------------------|-----------------------|
|---------------------|-----------------------|
|---------------------|-----------------------|


   Q   E  Q   Q   +E     Q   Q
|------2--------------|--------------------|
|-^3------5---3---(3)-|-^2-----------------|
|-^2------------------|-^4---4-------------|
|-^0------------------|-^2-----------------|
|---------------------|--------------------|
|---------------------|--------------------|
|
|                                 Gtrs II, III
|  Q   E  Q   Q   +E     Q   H     S S S S
|-10--14-12--10--(10)-|--9--------10p9p7h9-|
|---------------------|-----12-------------|
|---------------------|--------------------|
|---------------------|--------------------|
|---------------------|--------------------|
|---------------------|--------------------|


 Outro (Instrumental)
   Q  E  Q  Q  +E     Q   E  E +H
|------------------|----------------------|
|-^3--2-----2--(2)-|-^2---3--5-(5)--------|
|-^2-----4---------|-^4-------------------|
|-^0---------------|-^2-------------------|
|------------------|----------------------|
|------------------|----------------------|
|
|  Q  E  Q  Q  +E     Q   E  H        +E
|-10--9-----9--(9)-|--9--10-12-------(12)-|
|-------12---------|----------------------|
|------------------|----------------------|
|------------------|----------------------|
|------------------|----------------------|
|------------------|----------------------|


   Q   E  Q   Q   +E     Q   E  E  +H
|------2--------------|-------------------|
|-^3------5---3---(3)-|-^2----------------|
|-^2------------------|-^4---4--4--(4)----|
|-^0------------------|-^2----------------|
|---------------------|-------------------|
|---------------------|-------------------|
|
|  Q   E  Q   Q   +E     Q   E  E  +H
|-10--14-12--10--(10)-|--9----------------|
|---------------------|-----12-12-(12)----|
|---------------------|-------------------|
|---------------------|-------------------|
|---------------------|-------------------|
|---------------------|-------------------|


   Q   E  Q   Q   +E     Q   E  E +Q        Q
|------2--------------|------------------------|
|-^5------3-----------|-^5---3-------------^2--|
|-^4----------4---(4)-|-^4------2-(2)------^4--|
|-^2------------------|-^2-----------------^2--|
|---------------------|------------------------|
|---------------------|------------------------|
|
|  Q   E  Q   Q   +E     Q   E  Q      +E   Q
|-12--14-10-----------|-12--10--------------9--|
|------------12--(12)-|--------10-----(10)-----|
|---------------------|------------------------|
|---------------------|------------------------|
|---------------------|------------------------|
|---------------------|------------------------|


   Q  Q   H       E  E H    +Q
|--------------|-----------------|
|--3--2--------|--5--3-2----(2)--|
|---------4----|-----------------|
|--------------|-----------------|
|--------------|-----------------|
|--------------|-----------------|
|
|  Q  Q   H       E  E H    +Q
|-10--9--------|-12-10-9----(9)--|
|--------12----|-----------------|
|--------------|-----------------|
|--------------|-----------------|
|--------------|-----------------|
|--------------|-----------------|


  Q   H     +Q      +W            +W             W
|----^7-----(7)--|--(7)--------|--(7)--------|---------*|
|----^7-----(7)--|--(7)--------|--(7)--------|---------*|
|----^4-----(4)--|--(4)--------|--(4)--------|---------*|
|----^4-----(4)--|--(4)--------|--(4)--------|---------*|
|----------------|-------------|-------------|---------*|
|----------------|-------------|-------------|---------*|
|
|                                  >
| Q   H     +Q      +W            +W            +W
|----19----(19)--|-(19)--------|-(19)--------|-(19)----*|
|----12----(12)--|-(12)--------|-(12)--------|-(12)----*|
|----------------|-------------|-------------|---------*|
|----------------|-------------|-------------|---------*|
|----------------|-------------|-------------|---------*|
|----------------|-------------|-------------|---------*|

Der Song macht eigentlich nur Sinn mit ner guten Akustik Gitarre, ansonsten klingt das 
Nix, wer hat schon gerade mal so ne 15-saitige Laute im Zimmer?!





Comments


Popular Subway To Sally tabs & chords
Abendlied Chords
Auf Kiel Chords
Minne Chords
So Rot Chords
Fatum Intro Tabs
Feuerland Tabs
Lacrimae 74 Intro Tabs
Sieben Original Spiel Tabs
Auf Kiel Ukulele
Tanz Des Todes Ukulele


Song lyrics



↑ Back to top | Tablatures and chords are parodies/interpretations of the original songs. You may use it for private study, scholarship, research or language learning purposes only
© 2014 AZChords.com Contact us | Privacy policy | DMCA | Add/correct tabs | Request tabs | Top 50 tabs