>
 >
Angelus

Angelus Guitar Tabs

Subway To Sally - Angelus chords, tabs, tablatures, lyrics

Guitar lessons | Add/correct | Request | Top 50 tabs Artists:  A B C D E F G H I J K L M N O P Q R S T U V W X Y Z 0-9

Angelus Guitar Tabs – Subway To Sally

CD, Sheet music, Poster

Do you like Angelus? Share with your friends now
Tabs



Duration Legend
---------------
Q - quarter
E - 8th

4/4

Intro/Outro - Melody

      Bm                  D                   A                   G

E||---2----------------|--2----------------|--0----------------|--3-----------------||
B||---3----------------|--3----------------|--2----------------|--3-----------------||
G||*--4----------------|--2----------------|--2----------------|--0----------------*||
D||*--4----------------|--0----------------|--2----------------|--0----------------*||
A||---2----------------|-------------------|--0----------------|--2-----------------||
E||--------------------|-------------------|-------------------|--3-----------------||


Main-Riff (Intro/Interludes/Verse 3/Outro)

   Bmsus4                    Bmsus2                     Bm

   Q    E  E  E  E  E  E     E  E  E  E  E  E  E  E     Q    E  E  E  E  E  E
--------------------------|--------------------------|-------------------------|
---5-------------5--------|-----2-----------2--------|--3-------------3--------|
*-------4-----------4-----|--------4-----------4-----|-------4-----------4-----|
*----------4-----------4--|-----------4-----------4--|----------4-----------4--|
---2----------2-----------|--2-----------2-----------|--2----------2-----------|
--------------------------|--------------------------|-------------------------|

Bmsus2
E  E  E  E  E  E  E  E
---------------------------||
-----2-----------2---------||
--------4-----------4-----*||
-----------4-----------4--*||
--2-----------2------------||
---------------------------||

Verse 1+2

  Bmsus2                    Bm                        Bmsus4                    Bm

  Q    E  E  E  E  E  E     Q    E  E  E  E  E  E     Q    E  E  E  E  E  E     Q    E  E E  E  E  E
-----------------------|-------------------------|-------------------------|-----------------------|
2-------------2--------|--3-------------3--------|--5-------------5--------|--3-------------3------|
-----4-----------4-----|-------4-----------4-----|-------4-----------4-----|-------4-----------4---|
--------4-----------4--|----------4-----------4--|----------4-----------4--|----------4-----------4|
2----------2-----------|--2----------2-----------|--2----------2-----------|--2----------2---------|
-----------------------|-------------------------|-------------------------|-----------------------|

  Bmsus2                    Bm                        Bmsus4                    Bm

  Q    E  E  E  E  E  E     Q    E  E  E  E  E  E     Q    E  E  E  E  E  E     Q    E  E E  E  E  E
-----------------------|-------------------------|-------------------------|----------2------------|
2-------------2--------|--3-------------3--------|--5-------------5--------|--3----------3---------|
-----4-----------4-----|-------4-----------4-----|-------4-----------4-----|-------4--------4-----4|
--------4-----------4--|----------4-----------4--|----------4-----------4--|-------------------4---|
2----------2-----------|--2----------2-----------|--2----------2-----------|--2--------------------|
-----------------------|-------------------------|-------------------------|-----------------------|

  Bmsus2                    Bm                        Bmsus4                    Bm

  Q    E  E  E  E  E  E     Q    E  E  E  E  E  E     Q    E  E  E  E  E  E     Q    E  E E  E  E  E
-----------------------|-------------------------|-------------------------|-----------------------|
2-------------2--------|--3-------------3--------|--5-------------5--------|--3-------------3------|
-----4-----------4-----|-------4-----------4-----|-------4-----------4-----|-------4-----------4---|
--------4-----------4--|----------4-----------4--|----------4-----------4--|----------4-----------4|
2----------2-----------|--2----------2-----------|--2----------2-----------|--2----------2---------|
-----------------------|-------------------------|-------------------------|-----------------------|

  E    F#   G    A       Bm

----------------------|-------------------|
----------------------|--3----------------|
----------------------|--4----------------|
--2----4----5----7----|--4----------------|
--2----4----5----7----|--2----------------|
--0----2----3----5----|-------------------|

Pre-Chorus

  Bm                  A                   C                   B                   B

--0----------------|--0----------------|--0----------------|--2----------------|--2----------------|
--1----------------|--2----------------|--1----------------|--4----------------|--4----------------|
--0----------------|--2----------------|--0----------------|--4----------------|--4----------------|
--2----------------|--2----------------|--2----------------|--4----------------|--4----------------|
--3----------------|--0----------------|--3----------------|--2----------------|--2----------------|
-------------------|-------------------|-------------------|-------------------|-------------------|

 Chorus

    Em                  G                   A                   C

|---0----------------|--3----------------|--0----------------|--0-----------------||
|---0----------------|--3----------------|--2----------------|--1-----------------||
|*--0----------------|--0----------------|--2----------------|--0----------------*||
|*--2----------------|--0----------------|--2----------------|--2----------------*||
|---2----------------|--2----------------|--0----------------|--3-----------------||
|---0----------------|--3----------------|-------------------|--------------------||





Comments


Popular Subway To Sally tabs & chords
Auf Kiel Chords
Kleid Aus Rosen 2 Chords
So Rot Chords
Sieben Original Spiel Tabs
Traum Vom Tod I Tabs
Versteckt Tabs
Grabrede Ukulele
Seemannslied Ukulele
Sieben Ukulele
Wenn Engel Hassen Ukulele


Song lyrics



↑ Back to top | Tablatures and chords are parodies/interpretations of the original songs. You may use it for private study, scholarship, research or language learning purposes only
© 2014 AZChords.com Contact us | Privacy policy | DMCA | Add/correct tabs | Request tabs | Top 50 tabs