» » »

The Youth Are Getting Restless Bass tabs (ver.1)

Artists:  A B C D E F G H I J K L M N O P Q R S T U V W X Y Z # 

The Youth Are Getting Restless Bass tabs (ver.1)

Sublime
Rating:
0/5 (0 votes)

Hard to play? Try these video lessons and learn fast.
                Sublime
Youth are Getting Restless (as played on the black album 2)

this was tabbed for the version of the song appearing on the black
album 2 which was recorded live.  therefor, it is likely that it may
differ slightly from other versions of this song that you may have.


intro song (not actually part of "youth are getting restless",
but played directly before it on the black album 2)
G|---------------------|
D|---------------------|
A|-0-3-3--0-1-1--0-1-1-| (basicly that repeated until "y.a.g.r.")
E|---------------------|

YOUTH ARE GETTING RESTLESS

RIFF 1
G|-------------------------|
D|-------------------------|
A|-------0-1-1-0-1-5-5-3-3-|
E|-3-3-3-------------------|

RIFF 2
G|----------------|
D|----------------|
A|----------1-3-1-|
E|-3-3--0-0-------|

(it gets all loud for a while and the bass is hard to hear, but
when it comes back into hearing range it appears to be playing this...
we will call it the "bridge")

BRIDGE
G|-------------------|
D|-3h5-3h5-3---------|
A|-----------5-5-5-5-|(a few times)
E|-------------------|

and then play something like this to end the bridge
G|------------------|
D|-3h5-5--3---------|
A|----------5-3-1-0-|
E|------------------|

okay.  that was my best shot at it.
            
Hard to play? Try these video lessons and learn fast. | Correct




comments powered by Disqus
↑ Back to top | Tablatures and chords are parodies/interpretations of the original songs. You may use it for private study, scholarship, research or language learning purposes only