» » »

Sublime, Wrong Way Tabs (ver.3)

Artists:  A B C D E F G H I J K L M N O P Q R S T U V W X Y Z # 

Wrong Way Tabs (ver.3)

Sublime Tabs
 Rating:
4/5 (4 votes)
Wrong Way lessons Tabs too difficult? Try these video lessons and learn fast
1
                Intro:
 Annie’s 12 years old...
---9---------------------6---------7--------7------6-----------------------
---9---------------------7---------7 ~ sl ~ 7----- 7----- Repeat 2 times --
---7---------------------7---------5--------9------7-----------------------
-------------------------5-------------------------5-----------------------

I give here all...
(use upstrokes ska style)
5-5-5-5---3-3-3-3---5-5-5-5---3-3-3-3---5-5-5-5---3-3-3-3--5-5-5-5----8--8---8--8--
5-5-5-5---3-3-3-3---5-5-5-5---3-3-3-3---5-5-5-5---3-3-3-3--5-5-5-5----8--8---8--8--
6-6-6-6---4-4-4-4---6-6-6-6---4-4-4-4---6-6-6-6---4-4-4-4--6-6-6-6----9--9---9--9--
7-7-7-7---5-5-5-5---7-7-7-7---5-5-5-5---7-7-7-7---5-5-5-5--7-7-7-7----10-10--10-10-

A cigarette rests...

--11--11-11--11---12--12--12--12----11-11--11--11----9-9-9-9-----------
--11--11-11--11---11--11--11--11----11-11--11--11----9-9-9-9-----------
--11--11-11--11---11--11--11--11----11-11--11--11----9-9-9-9-----------

 repeat this once
--9----9----9--9---9----9----9----9-----9---9---9---9-----9-9-9-9----------

The only family...

--7-7-7-7---5-5-5-5---7-7-7-7---5-5-5-5---7-7-7-7---5-5-5-5---7-7-7-7---10-10-10-10-
--7-7-7-7---5-5-5-5---7-7-7-7---5-5-5-5---7-7-7-7---5-5-5-5---7-7-7-7---10-10-10-10-
--8-8-8-8---6-6-6-6---8-8-8-8---6-6-6-6---8-8-8-8---6-6-6-6---8-8-8-8---11-11-11-11-
--9-9-9-9---7-7-7-7---9-9-9-9---7-7-7-7---9-9-9-9---7-7-7-7---9-9-9-9---12-12-12-12-
me happy are you sad...

-------------5-5-5-5--------------5-5-5-5-------------5-5-5-5--------------5-5-5-5-
---9-9-9-9---5-5-5-5---9-9-9-9----5-5-5-5--9-9-9-9----5-5-5-5----9-9-9-9---5-5-5-5-
---9-9-9-9---6-6-6-6---9-9-9-9----6-6-6-6--9-9-9-9----6-6-6-6----9-9-9-9---6-6-6-6-
---9-9-9-9---7-7-7-7---9-9-9-9----7-7-7-7--9-9-9-9----7-7-7-7----9-9-9-9---7-7-7-7-
---7-7-7-7-------------7-7-7-7-------------7-7-7-7---------------7-7-7-7-----------
then repeat everything except the intro.
            
Submit corrections

comments powered by Disqus
↑ Back to top | Sublime Tabs for Wrong Way. Lyrics for acoustic guitar and electric guitar. 1 Tablatures and chords are parodies/interpretations of the original songs. You may use it for private study, scholarship, research or language learning purposes only