» » »

Wrong Way Tabs (ver.2)

Artists:  A B C D E F G H I J K L M N O P Q R S T U V W X Y Z # 

Wrong Way Tabs (ver.2)

Sublime
Rating:
0/5 (0 votes)

Hard to play? Try these video lessons and learn fast.
                
  intro
|----------------------------------------------------------------5-|
|------------------------------------------5-------7-------5-----5-|
|----------6-------8-------6-------8-8-------6-------8-------6---6-|
|-9----9\7---7-7/9---9-9\7---7-7/9-----9\7-----7/9-----9\7-------7-|
|-9----9\7-----7/9-----9\7-----7/9-----9\7-----7/9-----9\7-------7-|
|-7----7\5-----5/7-----7\5-----5/7-----7\5-----5/7-----7\5-----5---|
 annie's 12 years old and two more...

 verse(4x each)
|-7-7-7-7\5-5-5-5/|-9--9--9--9-\7-7-7-7/|-7-7-7-7\5-5-5-5/-|
|-8-8-8-8\6-6-6-6/|-10-10-10-10\8-8-8-8/|-7-7-7-7\5-5-5-5/-|
|-9-9-9-9\7-7-7-7/|-10-10-10-10\8-8-8-8/|-8-8-8-8\6-6-6-6/-|
|-----------------|---------------------|------------------|
|-----------------|---------------------|------------------|
|-----------------|---------------------|------------------|(quick ska
upstrokes)
just repeat this though the song and thats pretty much it
          (sounds like it anyway)


not that hard
            
Hard to play? Try these video lessons and learn fast. | Correct




comments powered by Disqus
↑ Back to top | Tablatures and chords are parodies/interpretations of the original songs. You may use it for private study, scholarship, research or language learning purposes only