» » »

World Of Inflationlevel The Vibes Tabs (ver.1)

Artists:  A B C D E F G H I J K L M N O P Q R S T U V W X Y Z # 

World Of Inflationlevel The Vibes Tabs (ver.1)

Sublime
Rating:
0/5 (0 votes)

Tabs too difficult? Try these video lessons and learn fast.
                -------------------------------------------------------------------------------
                             World of Inflation/Level the Vibes - Sublime
-------------------------------------------------------------------------------

Tuning: Standard

Original Half Pint

Brad pretty much plays B# for the majority of World of Inflation. When they go into 
level the vibes he plays B# to F to B# to G. listen to it have fun get the feel for it.
Listen to the Sub-Dub bootleg version
or any of the various live recordings and I'm pretty sure this is what he is playing. 
Listen and see if you think it's the same.
Take it easy

        B#             sometimes he throws in a little power chord slide
e|------8---------------------------------------------------------------------|
B|------8---------------------------------------------------------------------|
G|------9---------------------------------------------------------------------|
D|------10---------------10--10\----------------------------------------------|
A|------10---------------10--10\----------------------------------------------|
E|------8----------------8---8\-----------------------------------------------|

Level the Vibes
     B#     B#     F      F      B#     B#     G       G
e|---8------8------8------8------8------8------10------10-----------------------|
B|---8------8------10-----10-----8------8------12------12-----------------------|
G|---9------9------10-----10-----9------9------12------12-----------------------|
D|---10-----10-----10-----10-----10-----10-----12------12-----------------------|
A|---10-----10-----8------8------10-----10-----10------10-----------------------|
E|---8------8--------------------8------8---------------------------------------|




************************************

| /   slide up
| \   slide down
| h   hammer-on
| p   pull-off
| ~   vibrato
| +   harmonic
| x   Mute note
| b   Bend
| pb  Pre-bend
| br  Bend release
| pbr Pre-bend release
| brb Bend release bend

************************************
            
Tabs too difficult? Try these video lessons and learn fast.


comments powered by Disqus
↑ Back to top | Tablatures and chords are parodies/interpretations of the original songs. You may use it for private study, scholarship, research or language learning purposes only