» » »

What’S Really Goin’ Wrong Tabs (ver.1)

Artists:  A B C D E F G H I J K L M N O P Q R S T U V W X Y Z # 

What’S Really Goin’ Wrong Tabs (ver.1)

Sublime
Rating:
0/5 (0 votes)

Hard to play? Try these video lessons and learn fast.
                Tuning: Standard, low to high - EADGBe

The intro is just randomly picking notes from 

   A     C     D     A  
|--5-----8-----10----5--|
|--5-----8-----10----5--|
|--6-----9-----11----6--|
|--7-----10----12----7--|
|--7-----10----12----7--|
|--5-----8-----10----5--|

Then there's the chorus, but in the first picking pattern:


   A     G     F#   E7  
|--5-----3-----2----7--|
|--5-----3-----2----9--|
|--6-----4-----3----7--|
|--7-----5-----4----9--|
|--7-----5-----4----7--|
|--5-----3-----2----X--|


Then it changes to fast ska, and it's the same chord progressions.
After ska it turns to punk, and it's the same chord patters, 
but you can play full chords or power chords, up to you.

Apologies, I don't have the solo, I just improvise in either A major pentatonic
or A minor. Up to you. I think the E7's in the chorus stay the same.

Cheers.

Moshalot
            
Hard to play? Try these video lessons and learn fast. | Correct




comments powered by Disqus
↑ Back to top | Tablatures and chords are parodies/interpretations of the original songs. You may use it for private study, scholarship, research or language learning purposes only