» » »

Sublime, What I Got Tabs (ver.7)

Artists:  A B C D E F G H I J K L M N O P Q R S T U V W X Y Z # 

What I Got Tabs (ver.7)

Sublime Tabs
 Rating:
4/5 (4 votes)
What I Got lessons Tabs too difficult? Try these video lessons and learn fast
                ----------------------------------------------------------------------------
----------------------------------------------------------------------------



Tuning: EADGBE

    D            G
E|------------------------------|      This little riff is played throughout
B|------3------------3----------|           the whole song, except for the
G|*--------2---2--------0---0--*|           drum intro, of course.
D|*--0-0-----0------------0----*|
A|------------------------------|
E|---------------3-3------------|

  Solo:
E|-----------------------------------------10-----------------------------|
B|--------6-----------7-5-3-3--------10h12----12-12-10-13-12-10-----------|
G|----5-7---7-5-5h7~--7-5-4-4--11h12----------------------------12b1/2r12-|
D|--7---------------------------------------------------------------------|
A|------------------------------------------------------------------------|
E|------------------------------------------------------------------------|

  ---------------|
  ---------------|
  -10-12-10------|
  ----------12~--|
  ---------------|
  ---------------|

    "Let the lovin', let the lovin' come back to me..."
E|-----------------------------------------------------|
B|--3~~~~~~~~~~~~~~~~~~~~~~~~~~~~~~~~~~~~~~~~~~~~~~~~--|
G|--2~~~~~~~~~~~~~~~~~~~~~~~~~~~~~~~~~~~~~~~~~~~~~~~~--|
D|--0~~~~~~~~~~~~~~~~~~~~~~~~~~~~~~~~~~~~~~~~~~~~~~~~--|
A|----------(let ring until the music comes back in)---|
E|-----------------------------------------------------|

  Outro Solo:
E|------------------------------------------------------------------------|
B|--7-----7-----7-----7-----7~-7b1/2r7~-7b1/2r7~-5-5s3-3s1-1p0--------0---|
G|----7-----7-----7-----7--------------------------------------2-2~-2---2-|
D|------7-----7-----7-----7-----------------------------------------------|
A|------------------------------------------------------------------------|
E|------------------------------------------------------------------------|

  ------------------------------------------------8-7-7-5-----------------|
  -0-7-----7-----7~-------------------------------------------------------|
  -----7-----7------------------------------------------------------------|
  -------7-----7----(w/distortion)----------7h8p7----------7~~~~~~~-------|
  -------------------5--------------------5----------------5~~~~~~~-------|
  ---------------------8-8-7-5-5~-7-8-7-5---------------------------------|

                NOTE:  The outro solo isn't played on the popular recording, I
heard it on one of the other recordings of What I Got...I guess they recorded it
the outro solo.


| s  slide
| h  hammer-on
| p  pull-off
| ~  let ring for a while
| +  harmonic
| x  Mute note
============================================================================
            
Submit corrections

comments powered by Disqus
↑ Back to top | Sublime Tabs for What I Got. Lyrics for acoustic guitar and electric guitar. Tablatures and chords are parodies/interpretations of the original songs. You may use it for private study, scholarship, research or language learning purposes only