» » »

Sublime, What Happened Bass tabs (ver.2)

Artists:  A B C D E F G H I J K L M N O P Q R S T U V W X Y Z # 

What Happened Bass tabs (ver.2)

Sublime Tabs
 Rating:
4/5 (4 votes)
What Happened lessons Tabs too difficult? Try these video lessons and learn fast
1
                Tuning:EADG
Group:Sublime 


        Intro
G|--------------------------------------------------------------------|
D|----------9-9-------------------------------------------------------|
A|----79-79-----9-7---------------------------------------------------|
E|7-7---------------10------------------------------------------------| x14


        Pre-Verse
G|--------------------------------------------------------------------|
D|--------------------------------------------------------------------|
A|--------------------------------------------------------------------|
E|77777777777777-05---------------------------------------------------| x3

G|--------------------------------------------------------------------|
D|--------------------------------------------------------------------|
A|--------------------------------------------------------------------|
E|7777----------------------------------------------------------------| 


        Verse
G|--------------------------------------------------------------------|
D|--------------------------------------------------------------------|
A|--------------------------------------------------------------------|
E|77777777444444447777777744444444------------------------------------| x4

G|--------------------------------------------------------------------|
D|--------------------------------------------------------------------|
A|--------77777777--------99999999----------------99999999-9----------|
E|55555555--------55555555--------7777777755555555--------------------|


        tequila part
G|--------------------------------------------------------------------|
D|------0-------------------------------------------------------------|
A|02-20--0-2-0---2-2-0-2----------------------------------------------|
E|--------------------------------------------------------------------|


This is the part before the saxophone...
G|--------------------------------------------------------------------|
D|--------------------------------------------------------------------|
A|--------------------------------------------------------------------|
E|77777777777777-05---------------------------------------------------| x4

G|--------------------------------------------------------------------|
D|--------------------------------------------------------------------|
A|77777777777777-05---------------------------------------------------|
E|--------------------------------------------------------------------| x2

G|--------------------------------------------------------------------|
D|--------------------------------------------------------------------|
A|--------------------------------------------------------------------|
E|77777777777777-05---------------------------------------------------| 

G|--------------------------------------------------------------------|
D|-88-99-10--66-77-9--------99999-------------------------------------|
A|9---------7---------------------------------------------------------|
E|--------------------77777-------------------------------------------|
        While guitar solo
G|--------------------------------------------------------------------|
D|--------------------------------------------------------------------|
A|--------------------------------------------------------------------|
E|77777777777777-05---------------------------------------------------|


Then play everything without intro. 

If you have questions, write. :)

Sublime Forever :)
            
Submit corrections

comments powered by Disqus
↑ Back to top | Sublime Bass for What Happened. Lyrics for acoustic guitar and electric guitar. 1 Tablatures and chords are parodies/interpretations of the original songs. You may use it for private study, scholarship, research or language learning purposes only