» » »

We're Only Gonna Die Tabs (ver.2)

Artists:  A B C D E F G H I J K L M N O P Q R S T U V W X Y Z # 

We're Only Gonna Die Tabs (ver.2)

Sublime
Rating:
0/5 (0 votes)

Hard to play? Try these video lessons and learn fast.
                (Intro)


E-----------------------------------------------------------------------|
B-----------------------------------------------------------------------|
G--------------------------------------------5b-------------------------|
D--7-7-7-7/5-5-5-5/4-4-4-4-4p0-0-0-0h2-2-2-2----------------------------|
A-----------------------------------------------------------------------|
E-----------------------------------------------------------------------|


E-----------------------------------------------------------------------|
B--5-8-7-5--5b----------------------------------------------------------|
G--------------7p5h7p5---------------5----------------------------------|
D----------------------7-5h7-7-7--7p------------------------------------|
A-----------------------------------------------------------------------|
E-----------------------------------------------------------------------|

On the D string in the tab above, the 7p then the 5 above means pull off of the 7 and 
the 5 without sounding the open D string.

E---------------------15-15-17-17--15-17-15-----------------------------|
B-/12-15-15p17-17-17p-----------------------17-15-----------------------|
G-------------------------------------------------17-17-14--------------|
D-----------------------------------------------------------------------|
A-----------------------------------------------------------------------|
E-----------------------------------------------------------------------|

E------------------------------------------------------------------------|
B------------------------------------------------------------------------|
G--14-12-12h14-14-14-14h12-12-12-12/11-11-11-11h-------------------------|
D------------------------------------------------14-14-14-14h12-12-12-12/|
A------------------------------------------------------------------------|
E------------------------------------------------------------------------|
this line ends with a 12 sliding to eleven.  I had to put the 11 on the line below 
I ran out of room.

E-----------------------------------------------------------------------|
B-----------------------------------------------------------------------|
G-----------------------------------------------------------------------|
D-11-11-11--------------------------------------------------------------|
A-----------12/0--------------------------------------------------------|
E-----------------------------------------------------------------------|

/=slide
h=hammer on
p=pull off
            
Hard to play? Try these video lessons and learn fast. | Correct




comments powered by Disqus
↑ Back to top | Tablatures and chords are parodies/interpretations of the original songs. You may use it for private study, scholarship, research or language learning purposes only