» » »

Sublime, We Re Only Gonna Die For Our Arrogance Tabs (ver.1)

Artists:  A B C D E F G H I J K L M N O P Q R S T U V W X Y Z # 

We Re Only Gonna Die For Our Arrogance Tabs (ver.1)

Sublime Tabs
Rating:
0/5 (0 votes)
We Re Only Gonna Die For Our Arrogance lessons Tabs too difficult? Try these video lessons and learn fast
                -----5---------3--------------5---------|-------------------------------------
-----5---------3-------7------5---------|-------------------------------------
-----6---------4-------7------6---------|-------------------------------------
-----7---------5-------7------7---------|-------------------------------------
-----7---------5-------5------7---------|--10/12--12-12----12\10--10-10-------
-----5---------3--------------5---------|-------------------------------------
 intro+ and verse chords(ska rythmn)     intro solo                           

--------------------------------------------------8-7-------------------------
----------------------------------------5----5/9-------9--/7--5h6h7p5---------
-10\9--9-9---9\5--5--5----5/7--7-7--7-----------------------------------------
                                                                              

--------------------------------17--15--/15--17-17---/17--15-14-12------------
------------------------15--17-------------------------------------15-14-12---
----------5b------16h17-------------------------------------------------------
-7-7--7-----------------------------------------------------------------------
                                                                              

-14-14----12h14-14-14---14\12-12-12-12\11--11--11-11\9-9-9--9\7-7-7-7-7\6--6--
                                                                              

-------------|------------|---------------------------------------------------
-------------|------------|---------------------------------------------------
--6-6-6---6--|------------|---------------------------------------------------
----------7--|------------|--4/5-5-5-5/7-7-7-7-/9-9-9-9/11-11-11-11\9-9-9-----
-------------|------------|---------------------------------------------------
-------------|------------|---------------------------------------------------
                 verse      next solo                                         

----------------0---3--2---0--------------------------------------------------
-------------------------------3--2h3p2-0-----x--x--3p2-2-3p2-2-3p2-3/5-------
-------------------------------------------2--x-x-----------------------------
-9\7-7-7-7-7------------------------------------------------------------------
                                                                              

-15-15-15-14-14-14-15-15-15-14-14-14-15-15-15-15-15-15-15\14-14-14\12-12------
-14-14-14-14-14-14-14-14-14-14-14-14-14-14-14-14-------14---------------------
                                                                              

------------------------------------------------15p12--12h15p12-12h15p12------
-12\10-10-10/12-12-12\10-10-10------------------------------------------------
-------------------------------12/14-14--14-14--------------------------------
                                                                              

-12h15p12-12h15p12-12h15p12-12h15p12---17--15--17b----|-----------------------
------------------------------------------------------|-----------------------
------------------------------------------------------|-----------------------
------------------------------------------------------|-----------------------
------------------------------------------------------|-----------------------
------------------------------------------------------|-----------------------
                                                         fin
            
Submit corrections

comments powered by Disqus
↑ Back to top | Sublime Tabs for We Re Only Gonna Die For Our Arrogance. Lyrics for acoustic guitar and electric guitar. Tablatures and chords are parodies/interpretations of the original songs. You may use it for private study, scholarship, research or language learning purposes only