» » »

Waiting For My Ruca Bass tabs (ver.4)

Artists:  A B C D E F G H I J K L M N O P Q R S T U V W X Y Z # 

Waiting For My Ruca Bass tabs (ver.4)

Sublime
Rating:
0/5 (0 votes)

Hard to play? Try these video lessons and learn fast.
                Sublime
Waiting For My Ruca
40oz To Freedom


I love this song.  Some may play higher note, but I do an open E so I can really get the 
going.

Intro:
G------------------------|
D------------------------|
A------------------------|
E-0-0---0-0---0-0-0000---|

Verse:
G------------------------|
D------------------------|
A------------------------|
E-0-0---0-0---0-0---0-0--|
"On the east side..."

Chorus:
G------------------------|
D------------------------|
A------------------------|
E-0-0---0-0---0----------|
"How she's my ruca..."

Bridge:
G---------------------------------------------|
D---------------------------------------------|
A---------------------------------------------|
E-0-x-x-x-0-x-----0-x-x-x-0-x-----0--0--0000--|

Verse:
G------------------------|
D------------------------|
A------------------------|
E-0-0---0-0---0-0---0-0--|
"She moved from Long Beach down to L.A...."

Chorus:
G------------------------|
D------------------------|
A------------------------|
E-0-0---0-0---0-0---0-0--|
"And now I'm waiting for my ruca..."


Play (above) til the end of the song.
Enjoy.
            
Hard to play? Try these video lessons and learn fast. | Correct




comments powered by Disqus
↑ Back to top | Tablatures and chords are parodies/interpretations of the original songs. You may use it for private study, scholarship, research or language learning purposes only