» » »

Superstar Punani Bass tabs (ver.1)

Artists:  A B C D E F G H I J K L M N O P Q R S T U V W X Y Z # 

Superstar Punani Bass tabs (ver.1)

Sublime
Rating:
0/5 (0 votes)

Tabs too difficult? Try these video lessons and learn fast.
                SUPERSTAR PUNANI BY SUBLIME
THIS IS A COOL SONG OFF SECOND HAND SMOKE AND IT'S PRETTY EASY. THE HARDEST
PART ABOUT IT IS MEMORIZING IT, BUT ONCE YOU GET THAT IT'S SWEET TO PLAY!IT
SOUNDS BETTER WHEN YOU PLAY IT WITH YOUR FINGER AND HAVE THE TONE PRETTY
LOW.
ENJOY!!!

STANDARD TUNNING (E,A,D,G)

VERSE

G|------------------------
D|--------88-7------------
A|5-7-8-5-----5-7-8-5-----
E|--------------------66-5

PRE-CHORUS

G|------------------------------------------------------------
D|55-555-555-555----------------55-555-555-555-7-7-7-7-7-7-7-7
A|---------------55-555-555-555-------------------------------
E|------------------------------------------------------------

CHORUS

G|-------------------------------       ----
D|--4-7-----2-5------------------       ----  <-THIS RIFF PLAYED
A|5-----5-3-----3---5-8-----4-7--       5-5-    PLAYED ONCE AFTER
E|----------------6-----6-5-----5       66-5    FIRST CHORUS

SUBLIME RULES
            
Tabs too difficult? Try these video lessons and learn fast.


comments powered by Disqus
↑ Back to top | Tablatures and chords are parodies/interpretations of the original songs. You may use it for private study, scholarship, research or language learning purposes only