» » »

Sublime, S.T.P Tabs (ver.2)

Artists:  A B C D E F G H I J K L M N O P Q R S T U V W X Y Z # 

S.T.P Tabs (ver.2)

Sublime Tabs
Rating:
0/5 (0 votes)
S.T.P lessons Tabs too difficult? Try these video lessons and learn fast
                (1)
-------------------------------------------------------------------------------
                             STP - Sublime
-------------------------------------------------------------------------------

Tuning:standard

(slower, distorted)"all that i need....."
e|--------------------------------------------------------------------|
B|-------------------10-10-10-10-101010------5-5-5-555----------------|
G|-------------------10-10-10-10-101010------5-5-5-555----------------| x2
D|----8-8-8-888------10-10-10-10-101010------5-5-5-555----------------|
A|----8-8-8-888------8--8--8--8--8-8-8-------3-3-3-333-----5-5-5-555--|
E|----6-6-6-666--------------------------------------------3-3-3-333--|

(ska upstroke rhythm)"flava flave and i.c.e....."
e|-----5-5-5-5---3-3-3-3-------------5-5-5-5-----------------------------|
B|-----5-5-5-5---3-3-3-3---7-7-7-7---5-5-5-5-----------------------------|
G|-----6-6-6-6---4-4-4-4---7-7-7-7---6-6-6-6-----------------------------|  X3
D|-----7-7-7-7---5-5-5-5---7-7-7-7---7-7-7-7-----------------------------|
A|-----7-7-7-7---5-5-5-5---5-5-5-5---7-7-7-7-----------------------------|
E|-----5-5-5-5---3-3-3-3-------------5-5-5-5-----------------------------|

(ska upstroke)"I've got all that I need...."
e|--6-6-6-6--------------8---8---8---8----3-3-3-3--------------------|
B|--6-6-6-6---10-10-10---8---8---8---8----3-3-3-3--------------------|
G|--7-7-7-7---10-10-10---9---9---9---9----4-4-4-4--------------------|
D|--8-8-8-8---10-10-10---10--10--10--10---5-5-5-5--------------------| x2
A|--8-8-8-8---8--8--8----10--10--10--10---5-5-5-5--------------------|
E|--6-6-6-6--------------8---8---8---8----3-3-3-3--------------------|

(upstroke ska rhythm) (repeat as needed)
e|-5----5-5-5-5---3-3-3-3---------------------------------------------|
B|--5---5-5-5-5---3-3-3-3---------------------------------------------|
G|---6--6-6-6-6---4-4-4-4---------------------------------------------|
D|------7-7-7-7---5-5-5-5---------------------------------------------|
A|------7-7-7-7---5-5-5-5------------------------2----4---------------|
E|------5-5-5-5---3-3-3-3------------------5--------------------------|


(slower)"I won't slip, and i won't trip..."
e|-------10----10------7----7------3----3-------5----5------------|
B|-------10-10---10----7--7--7-----3--3---3-----5--5---5----------|
G|-------11--------11--8-------8---4--------4---6--------6--------|
D|-------12------------9-----------5------------7-----------------|  X4 (more
A|-------12------------9-----------5------------7-----------------|or less, it
E|-------10------------7-----------3------------5-----------------|changes just a 
little, but that's pretty much the slow part)

(fast ska rhythm)"have you seen that little whore betty..."
e|-10-10-10-10---7-7-7-7---3-3-3-3---5-5-5-5---------------------|
B|-10-10-10-10---7-7-7-7---3-3-3-3---5-5-5-5---------------------|
G|-11-11-11-11---8-8-8-8---4-4-4-4---6-6-6-6---------------------|  x5
D|-12-12-12-12---9-9-9-9---5-5-5-5---7-7-7-7---------------------|
A|-12-12-12-12---9-9-9-9---5-5-5-5---7-7-7-7---------------------|
E|-10-10-10-10---7-7-7-7---3-3-3-3---5-5-5-5---------------------|

(slower, distorted)"all that i need....."
e|--------------------------------------------------------------------|
B|-------------------10-10-10-10-101010------5-5-5-555----------------|
G|-------------------10-10-10-10-101010------5-5-5-555----------------| x2
D|----8-8-8-888------10-10-10-10-101010------5-5-5-555----------------|
A|----8-8-8-888------8--8--8--8--8-8-8-------3-3-3-333-----5-5-5-555--|
E|----6-6-6-666--------------------------------------------3-3-3-333--|

(faster,distorted)"i won't run and pull the one jack move..."
e|-------------------------------------------------------------------|
B|-----------1010101010101010-55555555-------------------------------|
G|-----------1010101010101010-55555555-------------------------------|
D|--88888888-1010101010101010-55555555-------------------------------|
A|--88888888-8-8-8-8-8-8-8-8--33333333-55555555----------------------|
E|--66666666---------------------------33333333----------------------|

(clean ska upstroke)"baby you wanna give me kisses sweet..."
e|---5-5-5-5-5-5-5--3--5-5-5-5-5-5-5--3--5-5-5-5-5-5-5--3------|
B|---5-5-5-5-5-5-5--3--5-5-5-5-5-5-5--3--5-5-5-5-5-5-5--3------|
G|---6-6-6-6-6-6-6--4--6-6-6-6-6-6-6--4--6-6-6-6-6-6-6--4------|
D|---7-7-7-7-7-7-7--5--7-7-7-7-7-7-7--5--7-7-7-7-7-7-7--5------|
A|---7-7-7-7-7-7-7--5--7-7-7-7-7-7-7--5--7-7-7-7-7-7-7--5------|
E|---5-5-5-5-5-5-5--3--5-5-5-5-5-5-5--3--5-5-5-5-5-5-5--3------|

"But the taste of honey is worse than none at all"
e|--7-----10-----5-----------------------------------------|
B|--7-----10-----5-----------------------------------------|
G|--8-----11-----6-----------------------------------------|
D|--9-----12-----7-----------------------------------------|
A|--9-----12-----7-----------------------------------------|
E|--7-----10-----5-----------------------------------------|


yeeep.
************************************

| /   slide up
| \   slide down
| h   hammer-on
| p   pull-off
| ~   vibrato
| +   harmonic
| x   Mute note
| b   Bend
| pb  Pre-bend
| br  Bend release
| pbr Pre-bend release
| brb Bend release bend

************************************
            

comments powered by Disqus
↑ Back to top | Sublime Tabs for S.T.P. Lyrics for acoustic guitar and electric guitar. Tablatures and chords are parodies/interpretations of the original songs. You may use it for private study, scholarship, research or language learning purposes only