>
 >
Stp

Stp Bass Tabs

Sublime - Stp chords, tabs, tablatures, lyrics

Guitar lessons | Add/correct | Request | Top 50 tabs Artists:  A B C D E F G H I J K L M N O P Q R S T U V W X Y Z 0-9

Stp Bass Tabs – Sublime

CD, Sheet music, Poster

Do you like Stp? Share with your friends now
Bass TabsChordsUkulele
Band: Sublime


 Chorus 1: "Alllll that I Need"  Variation 1
 |-------------------------------------------------------------------|
 |-------------0-1-3-3-3-3-3-3-3-3-----------------------------------|
 |-1-1-1-1-1-1---------------------3-3-3-3-3-3-3-3-------------------|
 |-------------------------------------------------3-3-3-3-3-3-3-3-3-|
 
 Variation 2:
 |------------------------------------------------------------|
 |-------------0-1-3-3-3-3-3-3-3-3----------------------------|
 |-1-1-1-1-1-1---------------------3-3-5-5--7--8--10-10-10-10-|
 |------------------------------------------------------------|

 |-------------|
 |-------------|
 |-10-10-10-10-|
 |-------------|


 Verse 1: Alot of variations, i tried toget them all
 |-----------------------------------------------------|
 |-------------------------------6h7-6--9-9---6h7--9-9-|
 |---4h5-4--7-7---4h5-4--7-7---7------------7----------|
 |-5------------5--------------------------------------|
 
 |----------------------------------------------------|
 |----------------------------4h5-4--7-7---4h5-4--7-7-|
 |--------------------------5------------5------------|
 |-3-3-3-3--3-3--3-3-3-3-3----------------------------|


 |--------------------------------------------------------|
 |--------------------------------6h7-6--9-9---6h7-6--9-9-|
 |-------------------4h5--7-7---7------------7------------|
 |-5-5-5-5--5-5--5-5--------------------------------------|

 |------------------------------------------------------|
 |----------------------------4h5-4--7-7---4h5-4--7-4---|
 |--------------------------5------------5------------5-|
 |-3-3-3-3--3-3--3-x-3-3-3------------------------------|

 |-----------------------------------------------------|
 |-------------------------------6h7-6--9-9---6h7--9-9-|
 |-----------------4h5-4--7-7--7------------7----------|
 |-5-5-5-5--5-5--5-------------------------------------|

 |------------------------------------------------|
 |------------------------------------------------|
 |--------------------------5-5---5-5---5-5-5-5-5-|
 |-3-3-3-3--3-3--3-3-3-3-3------5-----5-----------|


 Chorus 2: Variation 1
 |-----------------------------------------------|
 |-----------------------------------------------|
 |-1-1-1-1--1-1--1-1-1-1-1-----------------------|
 |--------------------------1--1-1-1--1-1--1-1-1-|

 |--------------------------------------------|
 |--------------------------------------------|
 |-3-3-3-3--3--3-3-3-3------------------------|
 |----------------------3-3-3--3-3--3-3-3-3-3-|

 Variation 2:

 |-----------------------------------------------|
 |-----------------------------------------------|
 |-1-1-1-1--1-1--1-1-1-1-1-----------------------|
 |--------------------------1--1-1-1--1-1--1-1-1-|

 |----------------------------------------------|
 |----------------------------------------------|
 |-3-3-3-3--3--3---3---3------------------------|
 |---------------3---3----3-3-3--3-3--3-3-3-3-3-|
 
 Pre-Bridge:
 |-----------------------------------------------------|
 |-----------------------------------------------------|
 |-------------------7h5-7h5-------------------7h5-7h5-|
 |-5-5--3h5-3h5--5-5---------5-5--3h5-3h5--5-5---------|
 
 

 Bridge: Slow Part that starts at 1:16
 |---------------------------------------------------|
 |------------4--7--4----1--4--1---------------------|
 |-0--2--4--5----------2-----------2--5--2---4--5--7-|
 |-------------------------------3---------5---------|

 |---------------------------------------|
 |---4--7--4----1--2--4------------------|
 |-5----------2--------------------------|
 |----------------------3---5-5--3--2--0-|
 
 |------------------------------------------|
 |---4--7--4----1--2--4---------------------|
 |-5----------2-----------2--3--5---4--5--7-|
 |----------------------3---------5---------|

 |--------------------------------|
 |---4--7--4----1--2--4-----------|
 |-5----------2-------------------|
 |----------------------3-------5-|

 Verse2: Variation 1: After the Drums
 |--------------------------------------------------------------------|
 |-----4---4-5--7-7-----1---1-2--4-4----------------------------------|
 |-5-5---5----------2-2---2------------2-3--5-3-2-2------4---4-5--7-7-|
 |-----------------------------------3---------------5-5---5----------|
 
 Variation 2:
 |---------------------------------------------------------|
 |-----4---4-5--7-7----1-2--3-3-1--------------7----9---11-|
 |-5-5---5-----------2-------------------------------------|
 |--------------------------------3-3-3-3-3--5---7----9----|
 
 Variation 3:
 |----------------------------------------------------------|
 |----------------------------------------------------------|
 |-------9----9-10--12-12------6---6-7--9-9----2---2-3--5-5-|
 |-10-10---10--------------7-7---7-----------3---3----------|

 |----------------|
 |----------------|
 |---4---4-5--7-7-|
 |-5---5----------|

 Variation 4:
 |------------------------------------------------------------|
 |------------------------------------------------------------|
 |-------9----9-10--12-12------6---6-7--9-9------2-2-3--5-5-5-|
 |-10-10---10--------------7-7---7-----------3-3--------------|

 |------------------|
 |------------------|
 |-----4-4-5--7-7-7-|
 |-5-5--------------|

 Variation 5:
 |------------------------------------------------------------|
 |------------------------------------------------------------|
 |-------9----9-10--12-12------6---6-7--9-9------2-2-3--5-5-5-|
 |-10-10---10--------------7-7---7-----------3-3--------------|

 |----------------|
 |----------------|
 |----------------|
 |-5-5-5-5--5-5-5-|


 Chorus 3: Variation 1
 |------------------------------------------------------------|
 |-------------0-1-3-3-3-3-3-3-3-3----------------------------|
 |-1-1-1-1-1-1---------------------3-3-5-5--7--8--10-10-10-10-|
 |------------------------------------------------------------|

 |-------------|
 |-------------|
 |-10-10-10-10-|
 |-------------|

 Variation 2: Faster
 |-------------------------------------------------------------------|
 |--------------------------0-0-1-1--3-3-3-3-3-3-3-3-3-3-3-3-3-3-3-3-|
 |-1-1-1-1-1-1-1-1-1-1-1-1-------------------------------------------|
 |-------------------------------------------------------------------|


 |-----------------------------------------------------------------|
 |-----------------------------------------------------------------|
 |-3-3-3-3-3-3-3-3-3-3-3-3-3-3-3-3---------------------------------|
 |---------------------------------3-3-3-3-3-3-3-3-3-3-3-3-3-3-3-3-|


 Outro: Kinda repetative, but I hate when people don't
  type the whole thing out!!!
 |-----------------------------------------------------|
 |-----------------------------------------------------|
 |-------------------7h5-7h5-------------------7h5-7h5-|
 |-5-5--3h5-3h5--5-5---------5-5--3h5-3h5--5-5---------|

 |-----------------------------------------------------|
 |-----------------------------------------------------|
 |-------------------7h5-7h5-------------------7h5-7h5-|
 |-5-5--3h5-3h5--5-5---------5-5--3h5-3h5--5-5---------|

 |-----------------------------------------------------|
 |-----------------------------------------------------|
 |-------------------7h5-7h5-------------------7h5-7h5-|
 |-5-5--3h5-3h5--5-5---------5-5--3h5-3h5--5-5---------|

 |-----------------------------------------------------|
 |-----------------------------------------------------|
 |-------------------7h5-7h5-------------------7h5-7h5-|
 |-5-5--3h5-3h5--5-5---------5-5--3h5-3h5--5-5---------|

 |-----------------------------------------------------|
 |-----------------------------------------------------|
 |-------------------7h5-7h5-------------------7h5-7h5-|
 |-5-5--3h5-3h5--5-5---------5-5--3h5-3h5--5-5---------|

 |-----------------------------------------------------|
 |-----------------------------------------------------|
 |-------------------7h5-7h5-------------------7h5-7h5-|
 |-5-5--3h5-3h5--5-5---------5-5--3h5-3h5--5-5---------|

 |-----------------------------------------------------|
 |-----------------------------------------------------|
 |-------------------7h5-7h5-------------------7h5-7h5-|
 |-5-5--3h5-3h5--5-5---------5-5--3h5-3h5--5-5---------|

 |-----------------|
 |-----------------|
 |-5---------------|
 |------0------(5)-|


|Key|

x = Mute Note
h = Hammer On





Comments


Popular Sublime tabs & chords
Johnny Too Bad Bass Tabs
Boss Dj Chords
Greatest Hits Chords
Slow Ride23 Chords
Ain't No Prophet Tabs
Boss D.J. 1 Tabs
Doin' Time 1 Tabs
Greasy Lesbian Hamburger Fight Tabs
House Of Suffering Tabs
Little District Ukulele


Song lyrics



↑ Back to top | Tablatures and chords are parodies/interpretations of the original songs. You may use it for private study, scholarship, research or language learning purposes only
© 2014 AZChords.com Contact us | Privacy policy | DMCA | Add/correct tabs | Request tabs | Top 50 tabs