» » »

Sublime, Sound Check Bass tabs (ver.1)

Artists:  A B C D E F G H I J K L M N O P Q R S T U V W X Y Z # 

Sound Check Bass tabs (ver.1)

Sublime Tabs
 Rating:
4/5 (4 votes)
Sound Check lessons Tabs too difficult? Try these video lessons and learn fast
1
                Length:   3:40
Tuning:   Standard (EADG)
But it's a nice little warm up riff, and is a very catchy tune.
You might be able to get it from kazaa.

1st Riff/Intro
G:-------------------
D:-----5555-55-525---
A:---3-------------3-
E:-------------------

2nd Riff/Main Riff
G:-----------------5------------
D:-----5555-55-525--5555-55-525-
A:---3--------------------------
E:------------------------------

3rd Riff/0:28
G:-----------------
D:-----------------
A:---3-------------
E:-----3333333333--

And Then At About 0:35 It Changes To This
G:-----------------
D:-----------------
A:---3-------------
E:-----333333323---

It goes on a little longer, but if you just
use dif. variations you should be fine.

          -=[Please Rate]=-
       -=[This is my 1st tab]=-
            
Submit corrections

comments powered by Disqus
↑ Back to top | Sublime Bass for Sound Check. Lyrics for acoustic guitar and electric guitar. 1 Tablatures and chords are parodies/interpretations of the original songs. You may use it for private study, scholarship, research or language learning purposes only