» » »

Sublime, Smoke Two Joints Tabs (ver.3)

Artists:  A B C D E F G H I J K L M N O P Q R S T U V W X Y Z # 

Smoke Two Joints Tabs (ver.3)

Sublime Tabs
 Rating:
4/5 (4 votes)
Smoke Two Joints lessons Tabs too difficult? Try these video lessons and learn fast
                sublime
smoke two joints solo


This is my very first solo tab but it's a fairly easy solo to pick up. So this is what i 

Enjoy the tab


Distortion
e|---8-8-8-------7~---8p7p5-----------|
B|---------5-5-5--------------5b(7)r5-|
G|------------------------------------|
D|------------------------------------|
A|------------------------------------|
E|------------------------------------|

e|---8-8-8-------7~---8p7p5---15b(17)-|
B|---------5-5-5----------------------|
G|------------------------------------|
D|------------------------------------|
A|------------------------------------|
E|------------------------------------|

e|-------------------------------------------------------------12*----------|
B|-------------------------------------------------------------12*----------|
G|------------------------------5s7-777--555----------5---------------------|
D|-5s7--777--555-5s7-777--555---5s7-777--555------5-----7~------------7s8s9-|
A|-5s7--777--555-5s7-777--555---3s5-555--333--5h7---7---------------7-7s8s9-|
E|-3s5--555--333-3s5-555--333-----------------------------------------5s6s7-|
                                                         hold the last chord for a 
then take your hand off the neck and let the sound fill the song
            
Submit corrections

comments powered by Disqus
↑ Back to top | Sublime Tabs for Smoke Two Joints. Lyrics for acoustic guitar and electric guitar. Tablatures and chords are parodies/interpretations of the original songs. You may use it for private study, scholarship, research or language learning purposes only