» » »

Sublime, Smoke Two Joints Tabs (ver.1)

Artists:  A B C D E F G H I J K L M N O P Q R S T U V W X Y Z # 

Smoke Two Joints Tabs (ver.1)

Sublime Tabs
 Rating:
4/5 (4 votes)
Smoke Two Joints lessons Tabs too difficult? Try these video lessons and learn fast
1
                PROPS GO TO: Joe Hill

This is my first tab written on text, so bare with me.


**Lead Part at the bottom** 

This is the fingering that makes technicl sense (Fig.1). However, Fig2. is what I hear on the record
Fig.1
(3x)
E--5-5-5-5-5-5| |5-5-5--5/--3/
B--5-5-5-6-6-6| |5-5-5--6/--3/
G--5-5-5-5-5-5| |5-5-5--5/--4/
D-------------| |-----------5/
A-------------| |-----------5/
E-------------| |-----------3/
Fig.2
Same notes essentially, but a more stylish way of playing the intro.
(3x)
E--5-5-5---------| |5-5-5/--3/
B--5-5-5/10-10-10| |5-5-5/--3/
G--5-5-5/10-10-10| |5-5-5/--4/
D--7-7-7/10-10-10| |7-7-7/--5/
A--7-7-7---------| |7-7-7/--5/
E--5-5-5---------| |5-5-5/--3/

(All barred and on the up beats.  Dude, It's a regge style, if you don't know how, well...)

**|  |** Indicates a measure

(Pre Verse and Riff part)
|Am| |F G/| |Am| |F G5 G#5 A5\| last three chords played w/distotio 

Verse:
(3x)        Fourth Time (3x) No dist. the third time
|Am| |F G/| |Am| |F G5 G#5 A5|
I smoke two joints...

Chourus:
|Am| |F G/|
Smoke Cigarettes... and Scratching

This is the little riff off the Easy-E Sample, in case you were wondering...
E--11/12--12-12-12-11-12|
B--11/12--12-12-12-11-12|
G--11/12--12-12-12-11-12|
D-----------------------|
A-----------------------|
E-----------------------|

2nd Verse:

|Am| |F G/| |Am| |F  F F|  |G| |F  F F| |G F | |E| Let last chord ring
Daddy...                   But then one day...

Chorous:

Same as fist with lead and stuff...

Bridge:
Guitar Tacets...

(Bassline)
(10x)
G---------------------|
D---------------------|
A-----7-7-7-7--7-7-5-7|
E--5------------------|

END:
(3x)                        w/dist.
E--5-5-5---------| |5-5-5/---------
B--5-5-5/10-10-10| |5-5-5/---------
G--5-5-5/10-10-10| |5-5-5/---------
D--7-7-7/10-10-10| |7-7-7/--5---6-7\
A--7-7-7---------| |7-7-7/--5---6-7\
E--5-5-5---------| |5-5-5/--3---4-5\  Long Fall.............


Lead Parts...

Some notation...
--5b6r5----  Fist number is the fret you start on. "b" is bend and the second is the pitch you are going for and "r" is bend release.

--6h8--  Hammer on...

--10p8-- Pull off

--5tr7--  Trill...

--10~--  Vibrato.

--24--  Artifitial harmonic.  The fret is not usually on the fretboard, but it is an estimate of where you put your thumb.  (every guitar is different, find that sweet spot!)

First Riff...
E----------------------------------------8-8-8----7---8p7-----|
B----------8-8h10p8---------------------------------------10~-|
G--5b6--------------9-7-5h7p5------------------9-9------------|
D-----------------------------7-5-----------------------------|
A---------------------------------8\--------------------------|
E-------------------------------------------------------------|

After the first verse.
E-----------------------|
B-----------------------|
G---------24---------|
D------5--------24~\-|
A--5h7---7--------------|
E-----------------------|


E--8-8-8-----7---8p7------------8-8-8-----7-------------------------------------|
B--------------------10---------------------------------------------------------|
G--------7-7------------5b6r5~--------7-7-----28b6r5b6r~---------------------|
D-------------------------------------------------------------------------------|
A-----------------------------------------------------------5-5-5-5-5/-7-7-7-7-7|
E-----------------------------------------------------------3-3-3-3-3/-5-5-5-5-5|

|-----------------------------------------------------------|                           |
|-------------------------------------------28-----------|                           |
|-------------------------------------7---------------------|                           |
|---------------5/-7-7-7-7-7-5/-7-7-5---5~--------7~---\5~--|..Some random string hits..|
|--5/-7-7-7-7-7-3/-5-5-5-5-5-3/-5---------------------------|                           |
|--3/-5-5-5-5-5---------------------------------------------|                           |

|--X-X-|
|--X-X-|
|--X-X-|
|--X-X-|
|------|
|------|


ENJOY! AND SMOKE TWO JOINTS!
            
Submit corrections

comments powered by Disqus
↑ Back to top | Sublime Tabs for Smoke Two Joints. Lyrics for acoustic guitar and electric guitar. 1 Tablatures and chords are parodies/interpretations of the original songs. You may use it for private study, scholarship, research or language learning purposes only