>
 >
Smoke 2 Joints

Smoke 2 Joints Guitar Tabs

Sublime - Smoke 2 Joints chords, tabs, tablatures, lyrics

Guitar lessons | Add/correct | Request | Top 50 tabs Artists:  A B C D E F G H I J K L M N O P Q R S T U V W X Y Z 0-9

Smoke 2 Joints Guitar Tabs – Sublime

CD, Sheet music, Poster

Do you like Smoke 2 Joints? Share with your friends now
Tabs
Intro Chords:
    Am    Dm    G     G#
E|--5-----5-----3-----4----|
B|--5-----6-----3-----4----|
G|--5-----7-----4-----5----|
D|--7-----7-----5-----6----|
A|--------5----------------|
E|-------------------------|
(Double Time: Am,Dm, x3, Am, G, G#)

Main Riff:
E|---------5--3------------------------8--8--8-------7-----8p7p5---------------|
B|---------------5--3----------------------------5-5---------------------------|
G|--7^----------------5--2-----------------------------------------------------|
D|--------------------------5--3-------------------------------------5---6--7--|
A|-------------------------------------------------------------------5---6--7--|
E|-------------------------------------------------------------------3---4--5--|

Verse:
    Am          G   F          G
E|--5---5---5---3---1---1---1--3/--|
B|--5---5---5---3---1---1---1--3/--|
G|--5---5---5---4---2---2---2--4/--|
D|-----------------------------5/--|
A|---------------------------------|
E|---------------------------------|

Fill Riff:
E|------------------|
B|------------------|
G|------------5-----|
D|-------5-------7--|
A|--5h7----7--------|
E|------------------|


Solo:
E|-8-8-8-----7---8p7p5-------8-8-8-----7---8p7p5--------------|
B|-------5-5-----------------------5-5------------------------|
G|----------------------7^^^---------------------7^(7)^-------|
D|-------------------------------------------------------5-5--|
A|-------------------------------------------------------5-5--|
E|-------------------------------------------------------3-3--|

E|--------------------------------------------------------------|
B|--------------------------------------------------------------|
G|----------------------------------5/7-7-7-7--5/7---------5----|
D|-5/7-7-7-7--5/7-7-7-7--5/7-7-7-7--5/7-7-7-7--5/7-----5-----7--|
A|-5/7-7-7-7--5/7-7-7-7--5/7-7-7-7--3/5-5-5-5--3/5-5h7---7------|
E|-3/5-5-5-5--3/5-5-5-5--3/5-5-5-5------------------------------|

E|-----------------------X/----------------|
B|-----------------------X/----------------|
G|---------6-------------X/-------------2--|
D|-(7)--------7----------------------2-----|
A|-----------------------------------X-----|
E|----------------5^---------0-------------|





Comments


Popular Sublime tabs & chords
Slow Ride Bass Tabs
Badfish Chords
Hope Chords
New Song Tabs
Pawn Shop (Intro) Tabs
Pawn Shop (Solo) Tabs
What Happened Intro 1 Tabs
Greatest Hits Ukulele
Prophet Ukulele
Saw Red Ukulele


Song lyrics



↑ Back to top | Tablatures and chords are parodies/interpretations of the original songs. You may use it for private study, scholarship, research or language learning purposes only
© 2014 AZChords.com Contact us | Privacy policy | DMCA | Add/correct tabs | Request tabs | Top 50 tabs