» » »

Sublime, Slow Ride Bass tabs (ver.1)

Artists:  A B C D E F G H I J K L M N O P Q R S T U V W X Y Z # 

Slow Ride Bass tabs (ver.1)

Sublime Tabs
 Rating:
4/5 (4 votes)
Slow Ride lessons Tabs too difficult? Try these video lessons and learn fast
1
                This is not 100%, 'cause Eric Wilson does his crazy sh*t throughout the song, but this 
pretty damn close...

Intro:
G:--------------------------------------------------------------------::
D:---9-11-12-11-9-7----5-------5--------9-11-12-11-9-7-----5------7---::
A:--9-----------------5------7---7-----9------------------5-5----7-7--::
E:-7-----------------3---3------------7------------------3------5---5-::

Verse:
G:-------------------------------------::
D:-----7--7/10-10-9-7-----7--7---------::
A:-5--5--5------------5--5--5----10----::
E:------------------------------8--8-7-::

Chorus...if you will:
G:-------------------------------------------------::
D:---5-----------5-------------7-------------------::
A:--5-5---------5-5-----------7-7------------------::
E:-3---3-0-1---3---3-0-1-3---5----6666-5-5-5-5-5-5-::

Guitar Solo:
G:--------------------------------------------------------------------::
D:---9--11-12-11-9-----5-------7-5------------------------------------::
A:--9-9---------------5-------7---7-----------------------------------::
E:-7----------------3---3---5--------7-7-7-7/10-9-7-5-3-3-3-3-5-5-5-5-::

Sitting on the verge of tears...:
G:--------------------------------------------------------------------::
D:---9-11-12-11-9-7----5------7-------9-11-12-11-9-7-----5------------::
A:--9-----------------5-5----7-7-----9------------------5-5-----------::
E:-7-----------------3------5-------7------------------3------5-5-5-5-::
            
Submit corrections

comments powered by Disqus
↑ Back to top | Sublime Bass for Slow Ride. Lyrics for acoustic guitar and electric guitar. 1 Tablatures and chords are parodies/interpretations of the original songs. You may use it for private study, scholarship, research or language learning purposes only