» » »

Sublime, Scarlet Begonias Bass tabs (ver.1)

Artists:  A B C D E F G H I J K L M N O P Q R S T U V W X Y Z # 

Scarlet Begonias Bass tabs (ver.1)

Sublime Tabs
Rating:
0/5 (0 votes)
Scarlet Begonias lessons Tabs too difficult? Try these video lessons and learn fast
                                              Sublime
                          (Scarlet Begonias)
                              Bass Tab

I don't know certain parts of the song. I tried listening on the cd but I could barley hear it.

(Intro)
|------------------------------------------------------|
|------------------------------------------------------|
|-2-2-2-2-2-2-4----------------------------------------|
|------------5-----------------------------------------|

 After the intro is when I don't know what to do?
(Then it goes on to this part)
|------------------------------------------------------|
|------------------------------------------------------|
|----6-9-9-11-12-11-9----------------------------------|
|-7-7--------------------------------------------------|

Then this is the other part I know...

|------------------------------------------------------|
|------------------------------------------------------|
|----1-4-4-6-7-6-4----4-7-7-9-10-9-7---6-9-9-11-12-11-9|
|-2-2--------------5-5--------------7-7----------------|

Your on your own for the other parts of the song.

Later
                
            

comments powered by Disqus
↑ Back to top | Sublime Bass for Scarlet Begonias. Lyrics for acoustic guitar and electric guitar. Tablatures and chords are parodies/interpretations of the original songs. You may use it for private study, scholarship, research or language learning purposes only