» » »

Saw Red Tabs (ver.2)

Artists:  A B C D E F G H I J K L M N O P Q R S T U V W X Y Z # 

Saw Red Tabs (ver.2)

Sublime
Rating:
0/5 (0 votes)

Tabs too difficult? Try these video lessons and learn fast.
                (Acoustic)
Sublime
Saw Red (acoustic)
Sublime Acoustic: Bradley Nowell and Friends



Verse 1 

e----------
B----------
G--6---4---
D--7---5---   8x (strum each chord more than once u lazy bastard)
A--7---5---
E--5---3---

Pre chorus

e-----------------------
B----------7---9--------
G--6---4---7---9---6----
D--7---5---7---9---7----
A--7---5---5---7---7----   
E--5---3-----------5---- 

Chorus

e------------------------------
B-------------------------7----
G--6---4------------------7----
D--7---5-----------2-2/5--7----
A--7---5---2-2/5-5--------5---- 
E--5---3-----------------------

Break

e--5---3------
B--5---3------
G--6---4------      2x (pick random notes up and down the strings)
D--7---5------
A--7---5------ 
E--5---3------

(Verse 2- Just Repeat Verse 1)

(Repeat Pre-chorus)

Chorus

e--5---3-----------------------
B--5---3-----------5-5-5--7----
G--6---4-----------5-5-5--7----
D--7---5---------2--------7----
A--7---5---2-2/5----------5---- 
E--5---3-----------------------


(Repeat Break)

Verse 3

e----------
B----------
G--6---4---    4x
D--7---5---
A--7---5--- 
E--5---3---

e-------------------------
B--7---5---7---5----------
G--7---5---7---5---6---4--
D--7---5---7---5---7---5--
A--5---3---5---3---7---5--
E------------------5---3--

e---5-----
B---5-----
G---6-----   (one slow strum)
D---7-----
A---7----- 
E---5-----
            
Tabs too difficult? Try these video lessons and learn fast.




comments powered by Disqus
↑ Back to top | Tablatures and chords are parodies/interpretations of the original songs. You may use it for private study, scholarship, research or language learning purposes only