» » »

Sublime, Santeria Tabs (ver.5)

Artists:  A B C D E F G H I J K L M N O P Q R S T U V W X Y Z # 

Santeria Tabs (ver.5)

Sublime Tabs
Rating:
0/5 (0 votes)
Santeria lessons Tabs too difficult? Try these video lessons and learn fast
                (Unplugged)
****************************
*  ARTIST: SUBLIME         *
*  SONG: SANTERIA          *
*  DATE: 30/06/02          *
****************************

The tuning used is standard.


CHORDS:

     Emaj    G#maj   C#min   Bmaj
E----7-------4-------4-------7--------------
B----7-------4-------5-------7--------------
G----9-------5-------6-------8--------------
D----9-------6-------6-------9--------------
A----7-------6-------4-------9--------------
E----7-------4-------4-------7--------------




INTRO

     Emaj  
E-----------------------------------------
B-----------------------------------------
G--------------9-----------------9----9---
D---------9---------9-------9-------9---9-
A----7-----------------7------------------
E-----------------------------------------

    G#maj
E-----------------------------------------
B-----------------------------------------
G------------------5----------------------
D-----------6-----------6-----------------
A------6-------6--------------------------
E---4-------------------------------------

    N/C
E-----------------------------------------
B-----------------------------------------
G-----------------------------------------
D----6---4----2---1\----------------------
A-----------------------------------------
E-----------------------------------------

    C#min
E-----------------------------------------
B-------------------5---------------------
G-----------6-----------6-----------------
D-------6------6------------6-------------
A---4-------------------------------------
E-----------------------------------------


     Bmaj
E-----------------------------------------
B-----------------------------------------
G-----------------------8-----------------
D--------------9--------------------------
A---------9--------9----------------------
E----7------------------------------------


VERSE CHORDS: Emaj, G#maj, C#min, Bmaj

CHORUS CHORDS: Amaj, Bmaj, Emaj, C#min



Chorus Riff:

  A       B       E       C#min
e-5-------7-----------------------
b---5-------7-----9---------------
g-----6-------8-----9---------6---
d-------7-------9-------9-6-----6-
a---------------------7-----4-----
e---------------------------------



Solo:




v = vibrato
b()r = bend to specified note and release
p = pull off
h = hammer on

e-----------------------------------------
B-----------------------------------------
G------------------9-11b(13)r-9-8-8p6-9/8-
D-------------9-11------------------------
A-7v--(9)/11------------------------------
E-----------------------------------------


------------------------------------------------------------2-5-
--------------------------------------------------------1h4-----
-11v-11p9----9--------------------------------------2h4---------
----------11---9b(11)r-7-9p7---7-------------2h3h4------------
-----------------------------9---9-------2/4------------------


-12b(14)-12b(14)r-9------------------------------------------------------
--------------------11b(13)r-9-----9-------------------------------------
-------------------------------11----11p9--------9-------------10-----10-
-----------------------------------------11-9h11----9------11-----11-----
-------------------------------------------------------12----------------

---------9-----------------9--------------------------------------
-11--------9-------11--------9----11-------------11--------------- 
-11b(13)r----9-----11b(13)r----9--11b(13)r(11)v--11b(13)r-9-11-9v-
            

comments powered by Disqus
↑ Back to top | Sublime Tabs for Santeria. Lyrics for acoustic guitar and electric guitar. Tablatures and chords are parodies/interpretations of the original songs. You may use it for private study, scholarship, research or language learning purposes only