» » »

Sublime, Santeria Tabs (ver.13)

Artists:  A B C D E F G H I J K L M N O P Q R S T U V W X Y Z # 

Santeria Tabs (ver.13)

Sublime Tabs
 Rating:
4/5 (4 votes)
Santeria lessons Tabs too difficult? Try these video lessons and learn fast
1
                This tab is designed for one guitar and it's perfect for a solo performance.
This is my first tab but I'm sure it's correct. Any questions e-mail me

 INTRO
e|--------------------------------------------------------------------------|
B|-------------------------4----------------------5--------------7----------|
G|-----9--------9------------5------5-------6-4-----6------------8---8------|
D|---9---9---9----9-9----------6--------6-6-----6-----6-6-6/7------9---9----|
A|-7-------7-7--------7\---------6----4-4-----------------6/7-9-------------|
E|----------------------4-------------------------------------7----------7--|

 VERSES(1ST,2ND,3RD): Upstroke Ska
e|-x---x---x---x---x-4-x-4-x-4-x-4-x-4-x-4-x-4-x-4-x-7-x-7-x-7-x-7--|
B|-x-9-x-9-x-9-x-9-x-4-x-4-x-4-x-4-x-5-x-5-x-5-x-5-x-7-x-7-x-7-x-7--|
G|-x-9-x-9-x-9-x-9-x-5-x-5-x-5-x-5-x-6-x-6-x-6-x-6-x-8-x-8-x-8-x-8--|
D|-x-9-x-9-x-9-x-9--------------------------------------------------|
A|------------------------------------------------------------------|
E|------------------------------------------------------------------|REPEAT

 CHORUS(1ST,2ND,4TH)
e|-5-------7------------------------------5-------7----------------------------|
B|---5-------7-----9-----------------5------5-------7-----9----------------5---|
G|-----6/8-----8-----9\8---8\6-----6---6------7/9-----------9\8---(8)--6-----6-|
D|---------------9---------------6--------------------9-9----------------6-----|
A|-----------------------6-----4--------------------------------6----4---------|
E|-----------------------------------------------------------------------------|

 -5-------7---------------------------5-------7----------|
 -5-5-------7-------9-------------5-----5--------7-------|
 -----6/8---------9----—8\6-----6---6--------------8-----|
 -------------9-X-------------6-----------7/9--------7---|
 ---------------------6-----4----------------------------|
 --------------------------------------------------------|

 GUITAR SOLO
e|------------------------------------------------------------------------|
B|------------------------------------------------------------------------|
G|--------------9-11b-(11)-9-8~~-8\6-8b(8)~~--6-6p4---4-------------------|
D|---------9h11-------------------------------------6---4b-2h4p2---2------|
A|-7--9/11-------------------------------------------------------4---4~~~-|
E|------------------------------------------------------------------------|

 ---------------------0------9-----------------------------------------------------|
 -------------------5----12b---12-9------------------------------------------------|
 ----------------4h6----------------11b-9----9-------------------------------------|
 -----------4h5h6-------------------------11---11p9---------9-------------10---10~~|
 ------2h3h4----------------------------------------11-9h11---11\9-7-9/11----11----|
 -2h3h4----------------------------------------------------------------------------|

 -----9---------9----------------------------|
 -11b---9---11b---9---11b-(11)~~~------------|
 -11b-----9-11b-----9-11b-(11)~~~-11b-9-11---|
 --------------------------------------------|
 --------------------------------------------|
 --------------------------------------------|

 3RD CHORUS
e|-5-------7------------------------------------7-------------------------|
B|---5-------7-----9---------4h5------------------7--9---------4h5--------|
G|-----6/8-----8h9---9\8---8-----6--------6------------9\8---8-----6------|
D|---------------------------------6--------7/9----------------------6----|
A|-----------------------6-----------4--7------------------6-----------4--|
E|------------------------------------------------------------------------|

 -5-------7-------------------------5-------7---------|
 ---5-------7-----9-------------5-----5-------7-------|
 -----6/8-------8---9\8--—8-------6-----6/8-----------|
 -------------9---------------6-----------------9-----|
 -----------------------6---4---------------------7---|
 -----------------------------------------------------|

 OUTRO: Gradually Slows Down
e|---------------------------------|
B|-9-----------4----------^0~~~~~--|
G|-9---8-\-6-\-4---6-/^8--^7~~~~~--|
D|-9---8-\-6-\-4---7-/^9--^6~~~~~--|
A|-7---6-\-4-\-2---7-/^9--^7~~~~~--|
E|-----------------5-/^7-----------|
			    w/ bar

Song Order	Begins
		  at
INTRO		(0:00)
1ST VERSE	(0:13)
1ST CHORUS	(0:34)
2ND VERSE	(0:53)
2ND CHORUS	(1:14)
GUITAR SOLO	(1:32)
3RD CHORUS	(1:54)
3RD VERSE	(2:12)
4TH CHORUS	(2:33)
OUTRO		(2:52)
            
Submit corrections

comments powered by Disqus
↑ Back to top | Sublime Tabs for Santeria. Lyrics for acoustic guitar and electric guitar. 1 Tablatures and chords are parodies/interpretations of the original songs. You may use it for private study, scholarship, research or language learning purposes only