» » »

Sublime, Santeria Tabs (ver.9)

Artists:  A B C D E F G H I J K L M N O P Q R S T U V W X Y Z # 

Santeria Tabs (ver.9)

Sublime Tabs
 Rating:
4/5 (4 votes)
Santeria lessons Tabs too difficult? Try these video lessons and learn fast
                Inro
       E                       Ab
e--------------------|----------------|
b--------------------|---4------------|
g-----9-------9-9----|-----5----------|
d---9---9---------9--|-------6--------|
a-7-------7-7-------7|-----------6-2-4|
e--------------------|-4-------4------|

   
       Dbm                     B
e--------------------|--2------------
b-----------5--------|----4----------
g-----6-------6------|------4--------
d---6---6-------6----|---------------
a-4-------4----------|2-------2------
e--------------------|---------------


Verse:
e-----------------------------------------------
b-----------------------------------------------
g-9-9--9--------------6-6--6--------------------
d-9-9--9-x2-6-6--6----6-6--6-x2-9-9--9----------
a-7-7--7----6-6--6-x2-4-4--4----9-9--9-x2-------
e-----------4-4--4--------------7-7--7----------

Chorus:
e-----------------------------------------------
b-----------------------------------------------
g-----------------------9--------6--------------
d-----7--------9------9---9----6---6------------
a---7---7----9---7--7--------4------------------
e-5--------7------------------------------------

Solo:
|------------------------------------------------------------|
|------------------------------------------------------------|
|-----------9-/13-11-9-8--8p6-8-8b9r8--6-4h6p4---------------|
|------9-11------------------------------------6-4/2~-4p2----|
|7-/11---------------------------------------------------h4--|
|------------------------------------------------------------|

     *=============
|------------------------------------------------------------|
|-----------------4----12b13-14-12---------------------------|
|-----------------4----------------13-11h13p11-9----9--------|
|2-----------2-4---------------------------------11---11-9---|
|--4-----2-4-------------------------------------------------|
|----234-----------------------------------------------------|

===========*
|-----------------------------------9------------9-----------|
|-----------------------------9------9------------9----------|
|-----------------------------11b13---9-11b13------9-11b13r11|
|11-9-------------10-----10----------------------------------|
|-----11-9-7--/11----/11-------------------------------------|
|------------------------------------------------------------|
            
Submit corrections

comments powered by Disqus
↑ Back to top | Sublime Tabs for Santeria. Lyrics for acoustic guitar and electric guitar. Tablatures and chords are parodies/interpretations of the original songs. You may use it for private study, scholarship, research or language learning purposes only