» » »

Sublime, Santeria Tabs (ver.8)

Artists:  A B C D E F G H I J K L M N O P Q R S T U V W X Y Z # 

Santeria Tabs (ver.8)

Sublime Tabs
 Rating:
4/5 (4 votes)
Santeria lessons Tabs too difficult? Try these video lessons and learn fast
1
                -------------------------------------------------------------------------------
-------------------------------------------------------------------------------

Ok here's my version of the song, I know it's not perfect, but the solo is 99% 

Tuning: Standard (E A D G B e)

Chords used:
   
   E    G#   C#m  B    D#madd6(?)
e|------4---------7------|
B|-9----4----5----7----7-|
G|-9----5----6----8----6-|
D|-9----6----6----9----9-|
A|-7----6----4----9----6-|
E|------4---------7------|

Intro:
   
   E                   G#            C#m             B
e|---------------------------------------------------------------|
B|-----------------------4-------4-------------5-4h5-----7-------|
G|-----9-------9-----------5-------5-----6-4h6-------------8-----|
D|---9---9-------9-----------6---------6---------------------9---|
A|-7-------7-7-----7-7---------6-----4-----------------9---------|
E|---------------------4-----------------------------7---------7-|

Verse 1:

E
I don't practice santeria 
           G#
I aint got no crystal ball 
       C#m                         B
Well I had a million dollars but I, I spent it all 
   E                                   G#
If I could find that heina and that sancho that she's found 
     C#m                         B
I'd pop a cap in sancho and I'd slap her down 

Chorus 1:
                                D#min
   A           B            E   (add6)C#m
e|-5-----------7----------------------------------|
B|----5-----------7---------9---7---------5-------|
G|-------6-----------8----------------------6---6-|
D|-7--------7--9--------9-----9---9-----6-----6---|
A|--------------------------7---6-----4-----------|
E|------------------------------------------------|
        What I really wanna know,     my baby
        What I really wanna say, I    can't define 
        Well it's love that I need    Ohh

   A           B      
e|-5-----------7-------------------|
B|----5-----------7----------------|
G|-------6-----------8-------------|
D|-7--------7--9--------9----------|
A|---------------------------------|
E|---------------------------------|
            My soul will have to...

Verse 2:

E                             G#
Wait 'till I get back to find heina of my own 
C#m                        B
Daddy's gonna love one and all 
E                                 G#
I feel the break feel the break fe - el the break 
                  C#m                 B
and I got live it out Ooh yeah uh huh

Well I swear that I...

Chorus 2:
                                D#min
   A           B            E   (add6)C#m
e|-5-----------7----------------------------------|
B|----5-----------7---------9---7---------5-------|
G|-------6-----------8----------------------6---6-|
D|-7--------7--9--------9-----9---9-----6-----6---|
A|--------------------------7---6-----4-----------|
E|------------------------------------------------|
        What I really wanna know,     my baby 
        What I really wanna say I     can't define 
         That love make it go

   A           B      
e|-5-----------7-------------------|
B|----5-----------7----------------|
G|-------6-----------8-------------|
D|-7--------7--9--------9----------|
A|---------------------------------|
E|---------------------------------|
            My soul will have to...

Solo:
     ~~                        ~~         ~~                                ~
e|---------------------------------------------------------------------------|
B|---------------------------------------------------------------------------|
G|---------------9-11b13-11-9-8--8-6-8h9p8-----------------------------------|
D|----------9-11----------------------------11-11p9---9----------------------|
A|-/7--9/11-----------------------------------------9---(9)b11r9\7-9p7---7---|
E|---------------------------------------------------------------------9---9-|

e|---------------------------------------------------------------------------|
B|-------------------------5----(12)b14-(12)b14-12-9-------------------------|
G|-------------------4h5h6---------------------------(11)b13r11-9----9-------|
D|-----------2/4h5h6----------------------------------------------11---11p9--|
A|-----2h3h4-----------------------------------------------------------------|
E|-2h4-----------------------------------------------------------------------|
                              ~~~~
e|--------------------------------------9-------------9----------------------|
B|--------------------------------11b13----9----11b13----9----11b13r11-11----|
G|--------------------------------11b13-------9-11b13-------9-11b13r11-11----|
D|---------9----------10----10-----------------------------------------------|
A|-11-9h11---9-7--/11----11--------------------------------------------------|
E|---------------------------------------------------------------------------|

e|---------------|
B|-11b13r11-9-11-|
G|-11b13r11-9-11-|
D|---------------|
A|---------------|
E|---------------|

Chorus 3:
                                D#min
   A           B            E   (add6)C#m
e|-5-----------7----------------------------------|
B|----5-----------7---------9---7---------5-------|
G|-------6-----------8----------------------6---6-|
D|-7--------7--9--------9-----9---9-----6-----6---|
A|--------------------------7---6-----4-----------|
E|------------------------------------------------|
        What I really wanna know,     my baby 
        What I really wanna say is    I've got mine 
        and I'll make it oh yes Im going on

   A           B      
e|-5-----------7-------------------|
B|----5-----------7----------------|
G|-------6-----------8-------------|
D|-7--------7--9--------9----------|
A|---------------------------------|
E|---------------------------------|
       Tell sanchito that if

Verse 3:

E                                     G#
he knows what is good for him he best go run and hide 
C#m                B
Daddys got a new .45 
E
And I won't think twice to stick that barrel straight 
G#
down sancho's throat 
   C#m                       B
Believe me when I say that I got something for his punk ass 


Chorus 4:
                                D#min
   A           B            E   (add6)C#m
e|-5-----------7----------------------------------|
B|----5-----------7---------9---7---------5-------|
G|-------6-----------8----------------------6---6-|
D|-7--------7--9--------9-----9---9-----6-----6---|
A|--------------------------7---6-----4-----------|
E|------------------------------------------------|
        What I really wanna know,     my baby 
        What I really wanna say is    there's just one
        way back and I'll        make it 

   A           B      
e|-5-----------7-------------------|
B|----5-----------7----------------|
G|-------6-----------8-------------|
D|-7--------7--9--------9----------|
A|---------------------------------|
E|---------------------------------|
       But my soul will have to

Outro:

   E5 D#5  C#5 B5  A5  B5  E7
e|---------------------------|
B|-------------------------4-|
G|-9---8---6---4---2---4---1-|
D|-9---8---6---4---2---4---2-|
A|-7---6---4---2---0---2---2-|
E|-------------------------0-|
   wait                  Yeah

| /  slide up
| \  slide down
| h  hammer-on
| p  pull-off
| ~  vibrato
| +  harmonic
| x  Mute note
===============================================================================
            
Submit corrections

comments powered by Disqus
↑ Back to top | Sublime Tabs for Santeria. Lyrics for acoustic guitar and electric guitar. 1 Tablatures and chords are parodies/interpretations of the original songs. You may use it for private study, scholarship, research or language learning purposes only