» » »

Santeria Tabs (ver.3)

Artists:  A B C D E F G H I J K L M N O P Q R S T U V W X Y Z # 

Santeria Tabs (ver.3)

Sublime
Rating:
0/5 (0 votes)

Hard to play? Try these video lessons and learn fast.
                I've seen this solo written a million times and it's always off by a few notes and there's too many different versions.  I tabbed this off of the Sublime Sublime CD and I'm sure it's at least 99% if not 100% perfect, just listen for the timing.  This is one of the greatest solos ever written by the greatest band ever.

-------------9-11^-11-9-8-8p6-8^-6-6p4---4-----------------------------456------
--------9h11---------------------------6---6/4-4-4p2---2-----------456----------
-7-7/11----------------------------------------------4---4-----234--------------
-----------------------------------------------------------234-----------------

-----9----------------------------------------------9---9--------9---------
-12^---12-9-----------------------------------------9-----9--------9-------
------------9h11p9----9----------------------------11^------9-11^----9-11^-
-------------------11---9h11p9------9------8----8--------------------------
-------------------------------9h11---9-11---11----------------------------

Just time everything correctly and as pretty as this solo sounds, it's not too tough... there ya go, hope you like it.
            
Hard to play? Try these video lessons and learn fast. | Correct




comments powered by Disqus
↑ Back to top | Tablatures and chords are parodies/interpretations of the original songs. You may use it for private study, scholarship, research or language learning purposes only