» » »

Sublime, Santeria Tabs (ver.14)

Artists:  A B C D E F G H I J K L M N O P Q R S T U V W X Y Z # 

Santeria Tabs (ver.14)

Sublime Tabs
 Rating:
4/5 (4 votes)
Santeria lessons Tabs too difficult? Try these video lessons and learn fast
1
                Sublime - Santeria

e|--------------------------------------------------------------------------|
B|--------------------------------------------------------------------------|
G|----------------------------9-------11b13b11---9---8v-----8p6----8b9p8----|
D|-------------------9h11---------------------------------------------------|
A|---7-------9h11-----------------------------------------------------------|
E|--------------------------------------------------------------------------|

e|--------------------------------------------------------------------------|
B|--------------------------------------------------------------------------|
G|--6------6p4------4-------------------------------------------------------|
D|--------------6-----------6\5\4\2-----4p2---------2-----------------------|
A|----------------------------------------------4--------4------------------|
E|-----------------------------------------------------------------2h3h4----|

e|---------------------------------(8)b9~----9p7----------------------------|
B|-------------------------5-----------------------9------------------------|
G|-------------------4h6----------------------------------7b9p7---5-------5-|
D|-----------4h5h6----------------------------------------------------6-----|
A|---2h3h4------------------------------------------------------------------|
E|--------------------------------------------------------------------------|

e|--------------------------------------------------------------9-----------|
B|----------------------------------------------------7b9~--------9---------|
G|-6p4----------4-------------------5----------5------7b9~----------9-------|
D|------6--4h6-----4----2------6----------6---------------------------------|
A|--------------------------------------------------------------------------|
E|--------------------------------------------------------------------------|

e|-------------9------------------------------------------------------------|
B|---7b9~--------9---------7b9~-------7b9p7----5-----7-----5----------------|
G|---7b9~----------9-------7b9~------------------------------6--------------|
D|-------------------------------------------------------------7.....-------|
A|--------------------------------------------------------------------------|
E|--------------------------------------------------------------------------|
            
Submit corrections

comments powered by Disqus
↑ Back to top | Sublime Tabs for Santeria. Lyrics for acoustic guitar and electric guitar. 1 Tablatures and chords are parodies/interpretations of the original songs. You may use it for private study, scholarship, research or language learning purposes only