» » »

Sublime, Santeria Tabs (ver.2)

Artists:  A B C D E F G H I J K L M N O P Q R S T U V W X Y Z # 

Santeria Tabs (ver.2)

Sublime Tabs
Rating:
0/5 (0 votes)
Santeria lessons Tabs too difficult? Try these video lessons and learn fast
                Not too long ago I sent in an entry giving the 
tablature for Sublime's SANTERIA. It included
the opening and the chorus. In this entry, I
will make one very slight correction to the 
chorus, but as a bonus, I am giving you the 
verse chord progession, and that solo we've all
grown to know and love ALL FOR THE LOW, LOW
PRICE OF (three monthly installments of) 
$49.95!!!!!!:

Sublime's   SANTERIA!!!!

Chorus corrections:
5-------7-------------------5p0----|
--5-------7-----9---7p4---------55-|
----6-------8-----9----5-6p4-------|
------7-------9--------------------|
-----------------------------------|
-----------------------------------|
..played three times, then repeat
the first eight notes once.

Verse chord Progession (palm muted)

   E A D G B E
   X_X_______X              X_X________
Am |_|_|_|_1_| 1st fret  Ab |_|_1_1_1_|
   |_|_2_3_|_| 2            |_|_|_|_|_|              
   |_|_|_|_|_| 3            |_|_|_|_|_|
   |_|_|_|_|_| 4            |_|_|_|_|_4 
   |_|_|_|_|_| 5            |_|_|_|_|_|


   X_X_X______              X_X________
D  |_|_|_|_|_|          F#9 |_|_|_|_|_|
   |_|_|_2_|_1              |_|_|_|_|_|
   |_|_|_|_3_|              |_|_|_1_|_|
   |_|_|_|_|_|              |_|_2_|_|_3
   |_|_|_|_|_|              |_|_|_|_4_|

Just so no one is confused about chord reading, 
I'll explain it all:

-The strings are as marked above the A-minor chord.

-The "X's" above the strings signify to muffle that string.

-The frets (also as marked above A-minor) start at the
first (at the top) and go to five (at the bottom). 

-The numbers on each fretted string are to tell what
fingers to use:
1-index finger
2-middle finger
3-ring finger
4-pinky
So the F-sharp 9 Chord in stantard tab form would be:
|--4--|
|--5--|
|--3--|
|--4--|
|--X--|
|--X--|

..and finally, the solo:
(right after he says "My soul will have to...")


-----------------------------------
-----------------------------------
-------------9--11^--11-9-8-8p6-8'-
---------9h11----------------------
-7---7/11--------------------------
-----------------------------------
  
                         ~~~~~~~
-----------------------------------------------0-
-------------------------------------------------
--6-6p4-------------------------------------456--
-------6/9-------------------------------456-----
-----------10^-7-9p7------------------456--------
--------------------9/12-9---(\4)--456-----------

                              ~~~~~~
--7^-9p7----------------------------
--------9-787\5---------------------
---------------6-898\6----5---------
----------------------8-6---6-11----
------------------------------------
------------------------------------


-----9---------9------------------------------|
------10--------10--------(7)-----------------|
11^-----9-11^-----9-11^-v-----11h12-11\9-9-67-|
----------------------------------------------|
----------------------------------------------|
----------------------------------------------|
                       ...oooooooooohhhhhh...
[Chorus continues]

Symbols-

SLIDING  / is for sliding up(5/7) and \ is to slide
         down (7\5)
BENDS/RELEASE   ' is a quarter step bend (1/2 fret)
                ^ is a half step bend (1 fret)
                v is to release from a bend
HAMMERON/PULLOFF   h is to hammer on(5h7) and
                   p is to pull off(7p5)

the solo's a little hard to get down at first, but
it fet's easier after a while.

                                     -Poodgie

Matt the Freshman, you read this whole thing?
            

comments powered by Disqus
↑ Back to top | Sublime Tabs for Santeria. Lyrics for acoustic guitar and electric guitar. Tablatures and chords are parodies/interpretations of the original songs. You may use it for private study, scholarship, research or language learning purposes only