>
 >
Santaria 1

Santaria 1 Guitar Tabs

Sublime - Santaria 1 chords, tabs, tablatures, lyrics

Guitar lessons | Add/correct | Request | Top 50 tabs Artists:  A B C D E F G H I J K L M N O P Q R S T U V W X Y Z 0-9

Santaria 1 Guitar Tabs – Sublime

CD, Sheet music, Poster

Do you like Santaria 1? Share with your friends now
Drum TabsTabsTabs v2
santeria by: sublime
AGe :18
tunning standard

EADGBE


/ = slide up
\ = slide down
* =harmonic

GuitaR 1
INTRO:
E------------------|
A------------------|
D--------9---------|
G-----9-----9------|(2X TIMES)
B--7------------7--|
E------------------|

AND

E------------------------------------------------------|
A--------4-------------------------------------------5-|
D-----------5---------------5--------------6----4\6----|
G-------------6-----------6--------------6-------------|
B----6---------------6------------4--4-----------------|
E-4----------------------------------------------------|

E-------------------------------------------|
A-----------------------------7-------------|
D------6--------------------------8---------|
G---------6--------------------------9------|
B------------7------------------------------|
E---------------------7---------------------|

VERSE
GUITAR 1 AND GUITAR 2 (Continued play this..and..Guitar one start lead)
E-----4---4---4---4---4---4---4---4----4-----4----4----4-----7---7---7---7-|
A-----5---5---5---5---4---4---4---4----5-----5----5----5-----7---7---7---7-|
D-----4---4---4---4---4---4---4---4----6-----6----6----6-----8---8---8---8-|2X
G--------------------------------------------------------------------------|
B--------------------------------------------------------------------------|
E--------------------------------------------------------------------------|

and i realy....
GUITAR 1
E--5----------7------|-------------------------4-------|--5------5\7-------|
A----5----------7----|--9--------7------5---------5----|----5--------7-----|
D------6----------8--|------9-------8-------6-------6--|------6--------8---|
G--------------------|--9-----9--8----8-6--------------|-------------------|
B--------------------|---------------------------------|-------------------|
E--------------------|---------------------------------|-------------------|

E-------------------------4-------|--5------5\7-------|
A--9--------7------5---------5----|----5--------7-----|
D------9-------8-------6-------6--|------6--------8---|
G--9-----9--8----8-6--------------|-------------------|
B---------------------------------|-------------------|
E---------------------------------|-------------------|

E-------------------------4-------|--5------5\7-------|
A--9--------7------5---------5----|----5--------7-----|
D------9-------8-------6-------6--|------6--------8---|
G--9-----9--8----8-6--------------|-------------------|
B---------------------------------|-------------------|
E---------------------------------|-------------------|

VERSE:(II)
(GUITAR 1) AND GUITAR 2 Continued play this..and..Guitar one start lead..again )
E-----4---4---4---4---4---4---4---4----4-----4----4----4-----7---7---7---7-|
A-----5---5---5---5---4---4---4---4----5-----5----5----5-----7---7---7---7-|
D-----4---4---4---4---4---4---4---4----6-----6----6----6-----8---8---8---8-|
G--------------------------------------------------------------------------|
B--------------------------------------------------------------------------|
E--------------------------------------------------------------------------|

E-----4---4---4---4---4---4---4---4----4-----4----4----4-----7---7---7---7-|
A-----5---5---5---5---4---4---4---4----5-----5----5----5-----7---7---7---7-|
D-----4---4---4---4---4---4---4---4----6-----6----6----6-----8---8---8---8-|
G--------------------------------------------------------------------------|
B--------------------------------------------------------------------------|
E--------------------------------------------------------------------------|

GUITAR 1(I)

E--5----------7------|-------------------------4-------|--5------5\7-------|
A----5----------7----|--9--------7------5---------5----|----5--------7-----|
D------6----------8--|------9-------8-------6-------6--|------6--------8---|
G--------------------|--9-----9--8----8-6--------------|-------------------|
B--------------------|---------------------------------|-------------------|
E--------------------|---------------------------------|-------------------|

E-------------------------4-------|--5------5\7-------|
A--9--------7------5---------5----|----5--------7-----|
D------9-------8-------6-------6--|------6--------8---|
G--9-----9--8----8-6--------------|-------------------|
B---------------------------------|-------------------|
E---------------------------------|-------------------|

E-------------------------4-------|--5------5\7-------|
A--9--------7------5---------5----|----5--------7-----|
D------9-------8-------6-------6--|------6--------8---|
G--9-----9--8----8-6--------------|-------------------|
B---------------------------------|-------------------|
E---------------------------------|-------------------|

and Solo lead

GUITAR 1
E-------------------------------------------------------------|
A-------------------------------------------------------------|
D-----------------9-----11p-----11----9---8~---8\6-----8p-----|
G------------9-11---------------------------------------------|
B--7----9/11--------------------------------------------------|
E-------------------------------------------------------------|

E------------------------------------------------------------------------------------|
A----------------------------------------------------------------------------5--(12p)|
D----6---6\4-----4-------------------------------------------------------4-6---------|
G-------------6------4----2----4---2-----2-----------------------4--5--6-------------|
B-------------------------------------4------4-----------2--3--4---------------------|
E------------------------------------------------2--3--4-----------------------------|


E----9---------------------------------------------------------------------------------|
A-------12-9---------------------------------------------------------------------------|
D------------11p--9-----9----------------------------------------------------------11p-|
G------------------11------11\9---------9------------------10--------------10~-----11p-|
B-------------------------------11-9\11---11-9----7---9/11--------11-------11~---------|
E--------------------------------------------------------------------------------------|

E--9----------9-----------------------------|
A----9---11p---9------11p-------------------|
D-----9--11p----9-----11p\9--11*--9---------|
G-----------------------------------------11|
B-------------------------------------------|
E-------------------------------------------|

GUITAR 1 reapet (I) and
GUITAR 2 DO THIS......


E--5---5---7---7---4---6---4---4---5---5---7---7---4---6---4---4---5---5---7---7--|
A--5---5---7---7---5---7---5---5---5---5---7---7---5---7---5---5---5---5---7---7--|
D--6---6---8---8---4---8---6---6---6---6---8---8---4---8---6---6---6---6---8---8--|
G---------------------------------------------------------------------------------|
B---------------------------------------------------------------------------------|
E---------------------------------------------------------------------------------|

E--4---6---4---4---5---5---7---7--|
A--5---7---5---5---5---5---7---7--|
F--4---8---6---6---6---6---8---8--|
G---------------------------------|
B---------------------------------|
E---------------------------------|

GUITAR 1 AND GUITAR 2 DO THIS
E-----4---4---4---4---4---4---4---4----4-----4----4----4-----7---7---7---7-|
A-----5---5---5---5---4---4---4---4----5-----5----5----5-----7---7---7---7-|
D-----4---4---4---4---4---4---4---4----6-----6----6----6-----8---8---8---8-|
G--------------------------------------------------------------------------|
B--------------------------------------------------------------------------|
E--------------------------------------------------------------------------|

E-----4---4---4---4---4---4---4---4----4-----4----4----4-----7---7---7---7-|
A-----5---5---5---5---4---4---4---4----5-----5----5----5-----7---7---7---7-|
D-----4---4---4---4---4---4---4---4----6-----6----6----6-----8---8---8---8-|
G--------------------------------------------------------------------------|
B--------------------------------------------------------------------------|
E--------------------------------------------------------------------------|

GUITAR 1 REAPAT (I)

GUITAR 2
E--5---5---7---7---4---6---4---4---5---5---7---7---4---6---4---4---5---5---7---7--|
A--5---5---7---7---5---7---5---5---5---5---7---7---5---7---5---5---5---5---7---7--|
D--6---6---8---8---4---8---6---6---6---6---8---8---4---8---6---6---6---6---8---8--|
G---------------------------------------------------------------------------------|
B---------------------------------------------------------------------------------|
E---------------------------------------------------------------------------------|
                                                        oUTRO
E--4---6---4---4---5---5---7---7--|---4---6---4---4---|--5---5---7---7------------------------------|
A--5---7---5---5---5---5---7---7--|---5---7---5---5---|--5---5---7---7--9--7--5--4---2--4-----------|
F--4---8---6---6---6---6---8---8--|---4---8---6---6---|--6---6---8---8--9--8--6--4---2--4--------7--|
G---------------------------------|-------------------|-----------------9--8--6--4---2--4------9----|
B---------------------------------|-------------------|-----------------7--6--4--2---0--2----7------|

THAT'S ALL

*************************************************************************************************
That’s all this is a cool song in short (ASTIG !!!!) hehehehehe if a have a mistake just
allan jommel aldrin  and my Special some one  Mary Jane Millares I love you Mary Jane 
song is for you….^_^ thank you And don’t forget to put a star ^_^
**************************************************************************************************





Comments


Popular Sublime tabs & chords
Same In The End Bass Tabs
Seed 3 Bass Tabs
Smoke Two Joints Bass Tabs
40 Oz. To Freedom 1 Chords
Guava Jelly Chords
April 29 1992 3 Tabs
Better Days Tabs
New Thrash 1 Tabs
Marley Medley Ukulele
Seed Ukulele


Song lyrics



↑ Back to top | Tablatures and chords are parodies/interpretations of the original songs. You may use it for private study, scholarship, research or language learning purposes only
© 2014 AZChords.com Contact us | Privacy policy | DMCA | Add/correct tabs | Request tabs | Top 50 tabs