>
 >
Santaria

Santaria Guitar Tabs

Sublime - Santaria chords, tabs, tablatures, lyrics

Guitar lessons | Add/correct | Request | Top 50 tabs Artists:  A B C D E F G H I J K L M N O P Q R S T U V W X Y Z 0-9

Santaria Guitar Tabs – Sublime

CD, Sheet music, Poster

Do you like Santaria? Share with your friends now
Drum TabsTabsTabs v2
Sublime - Santaria
Standard tuning

im tabbing this for one guitar, but im pretty sure theres two, so if 

you want the two guitar version either make me send you it - 


too hard!

this is a pretty good song and I found no tabs for it except an alrite 

one, I then decided making my own would be much more fun.


INTRODUCTION:

this method of playing the intro sounds the best...

|--------------------------------------|
|---------------------4----------------|
|---9-------9-9---------5-----5--------|
|-9--9--------------------6-----6-6----|
|7------7-7---------6-------6-------4--|
|-----------------4--------------------|


|--------------------------------------|
|--------5--------------7--------------|
|----6-----6---6----------8-----8------|
|--6---6-----6--------------9-----9-9--|
|4--------------------9-------9--------|
|-------------------7------------------|
          ooh       ooo ooh

But if you find this too hard to get used to or are just begining there 

is a lazyer version that uses the finger positions for the chords later 

used in the verse, doesnt sound as nice but it can help you -

put your fingers in these positions for each bit -

First bit           Second bit         Third bit     Fourth bit
e|--0--|open        |--4--|1st finger   |--4--|1st   |--7--|1st 
b|--0--|open        |--4--|2nd finger   |--5--|2nd   |--7--|2nd
g|--1--|1st finger  |--5--|3rd finger   |--6--|3rd   |--8--|3rd 
d|-----|            |-----|             |-----|      |-----|
a|-----|            |-----|             |-----|      |-----|
e|-----|            |-----|             |-----|      |-----|


first bit          Second bit 
|----0-------1----|-----4-------4-------|
|--0---0-------0--|---4---4-------4-----|
|1-------1-1------|-5-------5-5---------|
|-----------------|---------------------|
|-----------------|---------------------|
|-----------------|---------------------|


Third bit           Fourth Bit        
|----4-------4-----|------7-----7-------|
|--5---5-------5---|----7---7-----7-----|
|6-------6-6-----6-|--8-------8---------|
|------------------|--------------------|
|------------------|--------------------|
|------------------|--------------------|


then it goes straight into the...


VERSE:

chords used are the same as the beginner intro finger postions
these are ska chords, other tabs have show chords but if you listen 

carefully it is indeed only the top three strings that are played, thus 

they are ska chords. its a ska song so it kinda fits... :D

they are also played like ska chords - upstrokes (as opposed to 

downstrokes) which are played by strumming the strings from the highest 

to the lowest, so bringing the pick, or fingers/thumb, up towards your 

head, instead of down to your leg, in a sharp fashion.



    one sharp upstroke, no downstroke, not even muted ones.
  |-0---0---0---0-|-4---4---4---4-|-4---4---4---4-|-7---7---7---7-|     

  |-0---0---0---0-|-4---4---4---4-|-5---5---5---5-|-8---8---8---8-|
  |-1---1---1---1-|-5---5---5---5-|-6---6---6---6-|-8---8---8---8-|
  |---------------|---------------|---------------|---------------|
  |---------------|---------------|---------------|---------------|
  |---------------|---------------|---------------|---------------|
I dont..........I dont got.......I had.........but I, I...........

 
 
  |-0---0---0---0-|-4---4---4---4-|-4---4---4---4-|-7---7---7---7-|     

  |-0---0---0---0-|-4---4---4---4-|-5---5---5---5-|-8---8---8---8-|
  |-1---1---1---1-|-5---5---5---5-|-6---6---6---6-|-8---8---8---8-|
  |---------------|---------------|---------------|---------------|
  |---------------|---------------|---------------|---------------|
  |---------------|---------------|---------------|---------------|
 if I could......and that.......Well I'd.........and I'd...........

Listen to the song to find the upstroke pattern. same throughout.

Verse lyrics
I dont practice santaria,   
I aint got n crystal ball,
I had a million dollars but I,
I spent it all

If I could find that Heina,
and that Sancho she's found,
Well I'd pop a cap in Sancho
and I'd slap her do-own   



CHORUS:

repeated through chorus
|5-----7-------------------------------------------------------|
|--5-----7----9-----7--------------------------------------------|
|----6-----8----9-----8----------6----------------------------------|
|--------------------------9-6-----6----------------------------|
|------------------------7-----4-------------------------------|
|------------------------------------------------------------|

All I really wanna know my baby
All I really wanna say I can't define
Its love that I need
My soul will have to...

2nd VERSE:
same as first, listen for strumming pattern

Wait 'till I get back,
find a Heina of my own
Daddy's gonna love 
one and all

I feel the break, feel the break, feel the break
And I gotta live it up
Oh yeah, uh huh, well I swear that I

2nd CHORUS:
same as first

All I really wanna know my baby
All I really wanna say I can't define
That love will make it go
My soul will have to...


SOLO:

|------------------------------------------------------------|
|------------------------------------------------------------|
|-----------9-/13-11-9-8--8p6-8-8b9r8--6-4h6p4---------------|
|------9-11------------------------------------6-4/2~-4p2----|
|7-/11---------------------------------------------------h4--|
|------------------------------------------------------------|

    
|------------------------------------------------------------|
|-----------------4----12b13-14-12---------------------------|
|-----------------4----------------13-11h13p11-9----9--------|
|2-----------2-4---------------------------------11---11-9---|
|--4-----2-4-------------------------------------------------|
|----234-----------------------------------------------------|


|-----------------------------------9------------9-----------|
|-----------------------------9------9------------9----------|
|-----------------------------11b13---9-11b13------9-11b13r11|
|11-9-------------10-----10----------------------------------|
|-----11-9-7--/11----/11-------------------------------------|
|------------------------------------------------------------|

3rd CHORUS:
same

All I really wanna say my baby
All I really wanna say is I've got mine
And I'll make it yes I'm comin' up
Tell Sanchito that if

3rd VERSE:
same

He knows what is good for him 
he best go run and hide
Daddy's got a new 
45
And I won't think twice to stick that barrel 
straight down Sancho's throat
Believe me when I say that I've got
something for his punk ass

4th CHORUS:
same 

Well I really wanna know my baby
What I really wanna say is there's just one way back
And I'll make it
yeah my soul will have to wait

OUTRO:
played of an elongated (my soul will have to) wait - 'waaaaa ay ay ay 

ayyeee ay aayiiit'
|-----------------------------|
|-----------------------------|
|------13-12-11-8-6-8-13------|
|------14-13-12-9-7-9-14-let--|
|------14-13-12-9-7-9-14--ring|
|------12-11-10-7-5-7-12------|
    'waaayayayayyeeeayaayiiit'





Comments


Popular Sublime tabs & chords
All You Need 1 Bass Tabs
Bad Fish 1 Bass Tabs
No Woman No Cry 1 Bass Tabs
What I Got Bass Tabs
Chica Me Tipo Chords
Marley Medley: Guava Jelly/This Train Tabs
Pawn Shop Tabs
Santeria 11 Tabs
Hammer Ukulele
Zimbabwe Ukulele


Song lyrics



↑ Back to top | Tablatures and chords are parodies/interpretations of the original songs. You may use it for private study, scholarship, research or language learning purposes only
© 2014 AZChords.com Contact us | Privacy policy | DMCA | Add/correct tabs | Request tabs | Top 50 tabs