>
 >
Saniteria

Saniteria Guitar Tabs

Sublime - Saniteria chords, tabs, tablatures, lyrics

Guitar lessons | Add/correct | Request | Top 50 tabs Artists:  A B C D E F G H I J K L M N O P Q R S T U V W X Y Z 0-9

Saniteria Guitar Tabs – Sublime

CD, Sheet music, Poster

Do you like Saniteria? Share with your friends now
Tabs


  Gtr I Clean w/ Phase
  E S S +S  S E E. S S S E    E S S +S  S E E. S +E  E
|---------------------------|--------------------------|
|---------------------------|-----4-(4)----------------|
|-----9-(9)--------9--------|-----------5------5-(5)---|
|-----------9----------9----|---6---------6------------|
|---7---------7-7----7---7\-|---------------6--------2-|
|-0-------------0-----------|-4------------------------|


  C#m                            B/D#
   E S S +S  S S S +E  E E S S   E S S +S  S E H
|------------------------------|--------------------||
|----------------5-(5)---------|-----7-(7)----------||
|------6-(6)-4---------6-------|-----------8--------||
|----6---------6---------6-6s9-|---9---------9------||
|-/4-----------------------4s7-|-6-------------6----||
|------------------------------|--------------------||


 Verse
  E/B               G#/C              C#m(type 2)       B/D#VII
  Gtr I Clean
  e e e e e e e e   e e e e e e e e   E e E e E e E e   E e E e E e E e
|---4---x---x---x-|---4---x---x---x-|---4---x---x---x-|---7---x---x---x--|
|---5---x---x---x-|---4---x---x---x-|---5---x---x---x-|---7---x---x---x--|
|---4---x---x---x-|---5---x---x---x-|---6---x---x---x-|---8---x---x---x--|
|-----------------|-----------------|-----------------|------------------|
|-----------------|-----------------|-----------------|------------------|
|-----------------|-----------------|-----------------|------------------|


  E/B               G#/C              C#m(type 2)       B/D#VII
  e e e e e e e e   e e e e e e e e   E e E e E e E e   E e E e E e E e
|---4---x---x---x-|---4---x---x---x-|---4---x---x---x-|---7---x---x---x--||
|---5---x---x---x-|---4---x---x---x-|---5---x---x---x-|---7---x---x---x--||
|---4---x---x---x-|---5---x---x---x-|---6---x---x---x-|---8---x---x---x--||
|-----------------|-----------------|-----------------|------------------||
|-----------------|-----------------|-----------------|------------------||
|-----------------|-----------------|-----------------|------------------||


 Chorus
  $
  A                      B                 E          B/D#      C#m
  Gtr II
  E.   S +S  E    S   a  E.   S +S  E.     E.   S +S  S S s +s  S S S E e
|-5--------------(5)s(7)-7---------------|--------------------------------|
|------5-(5)-----(5)s(7)------7-(7)------|-9--------------------------5---|
|------------6---(6)s=8-------------8----|------9-(9)-----8-(8)-----6---6-|
|----------------------------------------|--------------9---------6-------|
|----------------------------------------|------------6---------4---------|
|----------------------------------------|--------------------------------|
|
| Gtr I
| E  e    E    e         E  e    E     e   E  e    E    e    E    e   E e
|----5---------x------------7----------x-|----4---------2---------4-----x-|
|----5---------x------------7----------x-|----5---------4---------5-----x-|
|----6---------x------------8----------x-|----4---------4---------6-----x-|
|----------------------------------------|--------------------------------|
|----------------------------------------|--------------------------------|
|----------------------------------------|--------------------------------|


  A                      B                 E          B/D#      C#m
  E.   S +S  E    S   a  E.   S +S  E.     e.   S +S  S S s +s  S S S E e
|-5--------------(5)s(7)-7---------------|--------------------------------|
|------5-(5)-----(5)s(7)------7-(7)------|-9--------------------------5---|
|------------6---(6)s=8-------------8----|------9-(9)-----8-(8)-----6---6-|
|----------------------------------------|--------------9---------6-------|
|----------------------------------------|------------6---------4---------|
|----------------------------------------|--------------------------------|
|
| E  e    E    e         E  e    E     e   E  e    E    e    E    e   E e
|----5---------x------------7----------x-|----4---------2---------4-----x-|
|----5---------x------------7----------x-|----5---------4---------5-----x-|
|----6---------x------------8----------x-|----4---------4---------6-----x-|
|----------------------------------------|--------------------------------|
|----------------------------------------|--------------------------------|
|----------------------------------------|--------------------------------|


  A                      B                 E          B/D#      C#m
  E.   S +S  E    S   a  E.   S +S  E.     E.   S +S  S S s +s  S S S E e
|-5--------------(5)s(7)-7---------------|--------------------------------|
|------5-(5)-----(5)s(7)------7-(7)------|------9-(9)-----------------5---|
|------------6---(6)s=8-------------8----|-9--------------8-(8)-----6---6-|
|----------------------------------------|------------------------6-------|
|----------------------------------------|------------6h7-------4---------|
|----------------------------------------|--------------------------------|
|
| E  e    E    e         E  e    E     e   E  e    E    e    E    e   E e
|----5---------x------------7----------x-|----4---------2---------4-----x-|
|----5---------x------------7----------x-|----5---------4---------5-----x-|
|----6---------x------------8----------x-|----4---------4---------6-----x-|
|----------------------------------------|--------------------------------|
|----------------------------------------|--------------------------------|
|----------------------------------------|--------------------------------|


                                  To Coda
  A                      B
  E.   S +S  E    S   a  E.   S +S  E.
|-5--------------(5)s(7)-7-----------------||
|------5-(5)-----(5)s(7)------7-(7)--------||
|------------6---(6)s=8-------------8------||
|------------------------------------------||
|------------------------------------------||
|------------------------------------------||
|
| E  e    E    e         E  e    E     e
|----5---------x------------7----------x---||
|----5---------x------------7----------x---||
|----6---------x------------8----------x---||
|------------------------------------------||
|------------------------------------------||
|------------------------------------------||


 Verse
  E/B                  G#/C              C#m(type 2)       B/D#VII
  Q   +Q     H         W                 W                 W
|--------------------|-----------------|-----------------|------------------|
|--------------------|-----------------|-----------------|------------------|
|-9---(9)\-----------|-----------------|-----------------|------------------|
|-9---(9)\-----------|-----------------|-----------------|------------------|
|-7---(7)------------|-----------------|-----------------|------------------|
|--------------------|-----------------|-----------------|------------------|
|
| e e  e   e e e e e   e e e e e e e e   E e E e E e E e   E e E e E e E e
|---4------x---x---x-|---4---x---x---x-|---4---x---x---x-|---7---x---x---x--|
|---5------x---x---x-|---4---x---x---x-|---5---x---x---x-|---7---x---x---x--|
|---4------x---x---x-|---5---x---x---x-|---6---x---x---x-|---8---x---x---x--|
|--------------------|-----------------|-----------------|------------------|
|--------------------|-----------------|-----------------|------------------|
|--------------------|-----------------|-----------------|------------------|


                                                            D.S. al Coda
  E/B               G#/C              C#m(type 2)       B/D#VII
  Gtr I
  e e e e e e e e   e e e e e e e e   E e E e E e E e   E e E e E e E e
|---4---x---x---x-|---4---x---x---x-|---4---x---x---x-|---7---x---x---x--||
|---5---x---x---x-|---4---x---x---x-|---5---x---x---x-|---7---x---x---x--||
|---4---x---x---x-|---5---x---x---x-|---6---x---x---x-|---8---x---x---x--||
|-----------------|-----------------|-----------------|------------------||
|-----------------|-----------------|-----------------|------------------||
|-----------------|-----------------|-----------------|------------------||


 Guitar Solo
  &
  E/B                                    G#/C
  Gtr III
                                         ~            ~~~
   E +S   S S S S  S S  E     +S   e e   Q   S E S   +H
|--------------------------------------|----------------------|
|--------------------------------------|----------------------|
|-^9-(9)\-------9-11---11b12-(11)-11-9-|-8---8p6-8b9r(8)------|
|-^9-(9)\-----9------------------------|----------------------|
|-^7-(7)\---7--------------------------|----------------------|
|---------0----------------------------|----------------------|
|
| Gtr I
|  e  e     e   e    e  e          e e   e e e e e    e  e e
|-----4---------x-------x------------x-|---4---x------x----x--|
|-----5---------x-------x------------x-|---4---x------x----x--|
|-----4---------x-------x------------x-|---5---x------x----x--|
|--------------------------------------|----------------------|
|--------------------------------------|----------------------|
|--------------------------------------|----------------------|


  C#m(type 2)
                                 ~~~~~~
   E T  T S s S    +S  S T T S s S +Q
|----------------------------------------|
|----------------------------------------|
|----------------------------------------|
|-11-9h11p9-9----------------------------|
|-------------9b10r(9)p7-7h9p7-7---------|
|--------------------------------9-(9)---|
|
|  E e      E       e    E     e    E  e
|----4--------------x----------x-------x-|
|----5--------------x----------x-------x-|
|----6--------------x----------x-------x-|
|----------------------------------------|
|----------------------------------------|
|----------------------------------------|


  B/D#VII
  |-3-| |-3-| |-3-| |-3-|
  S S S S S S S S S S S S s Q      E       +S
|-----------------------------------------------|
|-----------------------5-5-------12b14---(12)--|
|-------------------4h6-------------------------|
|-------------2h4h6-----------------------------|
|-------0h2h4-----------------------------------|
|-0h2h4-----------------------------------------|
|
| E     e     E     e     E   e E       e
|-------7-----------x---------x---------x-------|
|-------7-----------x---------x---------x-------|
|-------8-----------x---------x---------x-------|
|-----------------------------------------------|
|-----------------------------------------------|
|-----------------------------------------------|


  E/B
                                |-3--|  |-3--|
   S  S  s  T     +T  S  s s S  S  s S  S s  s E e
|--------------------------------------------------|
|-14p12--------------------------------------------|
|-------13-11b13r(11)p9----9-----------------------|
|-----------------------11---9h11---------9--------|
|---------------------------------11-9h11---11---9-|
|--------------------------------------------------|
|
|  e     e            e    e    e       e      e e
|--------4-----------------x------------x--------x-|
|--------5-----------------x------------x--------x-|
|--------4-----------------x------------x--------x-|
|--------------------------------------------------|
|--------------------------------------------------|
|--------------------------------------------------|


  G#/C
             ~~~~~~~
    e  e  e  E  +Q     +E   +S   S
|----------------------------------|
|--------------------------------8-|
|-------------------------------11-|
|-----10----10-(10)---(10)-(10)----|
|-/11----11------------------------|
|----------------------------------|
|
|   e  e  e  e   e  e   e    e
|------4-----x------x--------x-----|
|------4-----x------x--------x-----|
|------5-----x------x--------x-----|
|----------------------------------|
|----------------------------------|
|----------------------------------|


  C#m(type 2)                         B/D#VII
                                              ~~~~~~~~~~~~~
            |--3--|         |--3--|
   +Q       E E   E  Q      E E   E    E     +E   +Q   +E   S      +S  e  e
|-----------9---------------9-------|---------------------------------------||
|--(8)--------9------8--------9-----|--8-----(8)--(8)--(8)------------------||
|-(11)b12---------9-11b12---------9-|-11b12r(11)-(11)-(11)-11pb12r(11)-9-11-||
|-----------------------------------|---------------------------------------||
|-----------------------------------|---------------------------------------||
|-----------------------------------|---------------------------------------||
|
|   E     e E   e    E    e E   e      E      e    E    e   E       e  E  e
|---------4-----x---------x-----x---|---------7---------x-----------x-----x-||
|---------5-----x---------x-----x---|---------7---------x-----------x-----x-||
|---------6-----x---------x-----x---|---------8---------x-----------x-----x-||
|-----------------------------------|---------------------------------------||
|-----------------------------------|---------------------------------------||
|-----------------------------------|---------------------------------------||


 Chorus
  A                      B                 E          B/D#      C#m
  Gtr III
  E  E    Q              H                 W
|----------------------------------------|---------------------------------|
|----------------------------------------|---------------------------------|
|-9--9-----------------------------------|---------------------------------|
|----------------------------------------|---------------------------------|
|----------------------------------------|---------------------------------|
|----------------------------------------|---------------------------------|
|
| Gtr II
| E.   S +S  E    S   a  E.   S +S  E.     E.   S +S  S S s +s  S S S E e
|-5--------------(5)s(7)-7---------------|---------------------------------|
|------5-(5)-----(5)s(7)------7-(7)------|-9--------------------------5----|
|------------6---(6)s=8-------------8----|------9-(9)-----8-(8)-----6---6--|
|----------------------------------------|--------------9---------6--------|
|----------------------------------------|------------6---------4----------|
|----------------------------------------|---------------------------------|
|
| Gtr I
| E  e    E    e         E  e    E     e   E  e    E    e    E    e   E e
|----5---------x------------7----------x-|----4---------2---------4-----x--|
|----5---------x------------7----------x-|----5---------4---------5-----x--|
|----6---------x------------8----------x-|----4---------4---------6-----x--|
|----------------------------------------|---------------------------------|
|----------------------------------------|---------------------------------|
|----------------------------------------|---------------------------------|


  A                      B                 E          B/D#      C#m
  Gtr II
  E.   S +S  E    S   a  E.   S +S  E.     E.   S +S  S S s +s  S S S E e
|-5--------------(5)s(7)-7---------------|---------------------------------|
|------5-(5)-----(5)s(7)------7-(7)------|-9--------------------------5----|
|------------6---(6)s=8-------------8----|------9-(9)-----8-(8)-----6---6--|
|----------------------------------------|--------------9---------6--------|
|----------------------------------------|------------6---------4----------|
|----------------------------------------|---------------------------------|
|
| Gtr I
| E  e    E    e         E  e    E     e   E  e    E    e    E    e   E e
|----5---------x------------7----------x-|----4---------2---------4-----x--|
|----5---------x------------7----------x-|----5---------4---------5-----x--|
|----6---------x------------8----------x-|----4---------4---------6-----x--|
|----------------------------------------|---------------------------------|
|----------------------------------------|---------------------------------|
|----------------------------------------|---------------------------------|


  A                      B                 E          B/D#      C#m
  E.   S +S  E    S   a  E.   S +S  E.     E.   S +S  S S s +s  S S S E e
|-5--------------(5)s(7)-7---------------|--------------------------------|
|------5-(5)-----(5)s(7)------7-(7)------|------9-(9)-----------------5---|
|------------6---(6)s=8-------------8----|-9--------------8-(8)-----6---6-|
|----------------------------------------|------------------------6-------|
|----------------------------------------|------------6h7-------4---------|
|----------------------------------------|--------------------------------|
|
| E  e    E    e         E  e    E     e   E  e    E    e    E    e   E e
|----5---------x------------7----------x-|----4---------2---------4-----x-|
|----5---------x------------7----------x-|----5---------4---------5-----x-|
|----6---------x------------8----------x-|----4---------4---------6-----x-|
|----------------------------------------|--------------------------------|
|----------------------------------------|--------------------------------|
|----------------------------------------|--------------------------------|


  A                      B
  E.   S +S  E    S   a  E.   S +S  E.
|-5--------------(5)s(7)-7-----------------||
|------5-(5)-----(5)s(7)------7-(7)--------||
|------------6---(6)s=8-------------8------||
|------------------------------------------||
|------------------------------------------||
|------------------------------------------||
|
| E  e    E    e         E  e    E     e
|----5---------5------------7----------7---||
|----5---------5------------7----------7---||
|----6---------6------------8----------8---||
|------------------------------------------||
|------------------------------------------||
|------------------------------------------||


 Verse
  E/B                  G#/C              C#m(type 2)       B/D#VII
  Q   +Q     H         W                 W                 W
|--------------------|-----------------|-----------------|------------------|
|--------------------|-----------------|-----------------|------------------|
|-9---(9)\-----------|-----------------|-----------------|------------------|
|-9---(9)\-----------|-----------------|-----------------|------------------|
|-7---(7)------------|-----------------|-----------------|------------------|
|--------------------|-----------------|-----------------|------------------|
|
| e e  e   e e e e e   e e e e e e e e   E e E e E e E e   E e E e E e E e
|---4------x---x---x-|---4---x---x---x-|---4---x---x---x-|---7---x---x---x--|
|---5------x---x---x-|---4---x---x---x-|---5---x---x---x-|---7---x---x---x--|
|---4------x---x---x-|---5---x---x---x-|---6---x---x---x-|---8---x---x---x--|
|--------------------|-----------------|-----------------|------------------|
|--------------------|-----------------|-----------------|------------------|
|--------------------|-----------------|-----------------|------------------|


  E/B               G#/C              C#m(type 2)       B/D#VII
  Gtr I
  e e e e e e e e   e e e e e e e e   E e E e E e E e   E e E e E e E e
|---4---x---x---x-|---4---x---x---x-|---4---x---x---x-|---7---x---x---x--|
|---5---x---x---x-|---4---x---x---x-|---5---x---x---x-|---7---x---x---x--|
|---4---x---x---x-|---5---x---x---x-|---6---x---x---x-|---8---x---x---x--|
|-----------------|-----------------|-----------------|------------------|
|-----------------|-----------------|-----------------|------------------|
|-----------------|-----------------|-----------------|------------------|


 Outro Chorus
  A                      B                 E          B/D#      C#m
  Gtr II
  E.   S +S  E    S   a  E.   S +S  E.     E.   S +S  S S s +s  S S S E e
|-5--------------(5)s(7)-7---------------|--------------------------------||
|------5-(5)-----(5)s(7)------7-(7)------|-9--------------------------5---||
|------------6---(6)s=8-------------8----|------9-(9)-----8-(8)-----6---6-||
|----------------------------------------|--------------9---------6-------||
|----------------------------------------|------------6---------4---------||
|----------------------------------------|--------------------------------||
|
| Gtr I
| E  e    E    e         E  e    E     e   E  e    E    e    E    e   E e
|----5---------x------------7----------x-|----4---------2---------4-----x-||
|----5---------x------------7----------x-|----5---------4---------5-----x-||
|----6---------x------------8----------x-|----4---------4---------6-----x-||
|----------------------------------------|--------------------------------||
|----------------------------------------|--------------------------------||
|----------------------------------------|--------------------------------||


  A                      B                 E          B/D#      C#m
  E.   S +S  E    S   a  E.   S +S  E.     E.   S +S  S S s +s  S S S E e
|-5--------------(5)s(7)-7---------------|--------------------------------|
|------5-(5)-----(5)s(7)------7-(7)------|-9--------------------------5---|
|------------6---(6)s=8-------------8----|------9-(9)-----8-(8)-----6---6-|
|----------------------------------------|--------------9---------6-------|
|----------------------------------------|------------6---------4---------|
|----------------------------------------|--------------------------------|
|
| E  e    E    e         E  e    E     e   E  e    E    e    E    e   E e
|----5---------x------------7----------x-|----4---------2---------4-----x-|
|----5---------x------------7----------x-|----5---------4---------5-----x-|
|----6---------x------------8----------x-|----4---------4---------6-----x-|
|----------------------------------------|--------------------------------|
|----------------------------------------|--------------------------------|
|----------------------------------------|--------------------------------|


  A                      B                 E          B/D#      C#m
  E.   S +S  E    S   a  E.   S +S  E.     E.   S +S  S S s +s  S S S E e
|-5--------------(5)s(7)-7---------------|--------------------------------|
|------5-(5)-----(5)s(7)------7-(7)------|------9-(9)-----------------5---|
|------------6---(6)s=8-------------8----|-9--------------8-(8)-----6---6-|
|----------------------------------------|------------------------6-------|
|----------------------------------------|------------6h7-------4---------|
|----------------------------------------|--------------------------------|
|
| E  e    E    e         E  e    E     e   E  e    E    e    E    e   E e
|----5---------x------------7----------x-|----4---------2---------4-----x-|
|----5---------x------------7----------x-|----5---------4---------5-----x-|
|----6---------x------------8----------x-|----4---------4---------6-----x-|
|----------------------------------------|--------------------------------|
|----------------------------------------|--------------------------------|
|----------------------------------------|--------------------------------|


  A                      B
  E.   S +S  E    S   a  E.   S +S  E.
|-5--------------(5)s(7)-7-----------------|
|------5-(5)-----(5)s(7)------7-(7)--------|
|------------6---(6)s=8-------------8------|
|------------------------------------------|
|------------------------------------------|
|------------------------------------------|
|
| E  e    E    e         E  e    E     e
|----5---------x------------7----------x---|
|----5---------x------------7----------x---|
|----6---------x------------8----------x---|
|------------------------------------------|
|------------------------------------------|
|------------------------------------------|


  H.=H                      Q=68
  E5 D#5C#5B5       A5   B5 E
  Q  Q  Q  E +E      Q   Q  H            +W
|-----------------|--------------------|--------*|
|-----------------|--------------------|--------*|
|-9--8--6--4-(4)\-|--2---4--9----------|-(9)----*|
|-9--8--6--4-(4)\-|--2---4--9----------|-(9)----*|
|-7--6--4--2-(2)\-|--0---2--7----------|-(7)----*|
|-----------------|--------------------|--------*|
|
|                              ~~~~~~~~~~~~~~
| W                 +H      S  E. +Q     +W
|-4---------------|-(4)-------^4--(4)--|-(4)----*|
|-5---------------|-(5)-------^5--(5)--|-(5)----*|
|-4---------------|-(4)-------^4--(4)--|-(4)----*|
|-----------------|--------------------|--------*|
|-----------------|--------------------|--------*|
|-----------------|--------------------|--------*|


Duration Legend
---------------
W - whole; H - half; Q - quarter; E - 8th; S - 16th; T - 32nd; X - 64th; a - acciaccatura
+ - note tied to previous; . - note dotted; .. - note double dotted
Uncapitalized letters represent notes that are staccato (1/2 duration)
Irregular groupings are notated above the duration line
Duration letters will always appear directly above the note/fret number it represents the
duration for.  Duration letters with no fret number below them represent rests.  Multi-
bar rests are notated in the form Wxn, where n is the number of bars to rest for.  Low
melody durations appear below the staff

Tablature Legend
----------------
 h   - hammer-on
 p   - pull-off
 b   - bend
 pb  - pre-bend
 r   - bend release (if no number after the r, then release immediately)
 /\  - slide into or out of (from/to "nowhere")
 s   - legato slide
 S   - shift slide
  - natural harmonic
[n]  - artificial harmonic
n(n) - tapped harmonic
 ~   - vibrato
 tr  - trill
 T   - tap
 TP  - trem. picking
 PM  - palm muting
\n/  - tremolo bar dip; n = amount to dip
 \n  - tremolo bar down
 n/  - tremolo bar up
/n\  - tremolo bar inverted dip
 =   - hold bend; also acts as connecting device for hammers/pulls
 <>  - volume swell (louder/softer)
 x   - on rhythm slash represents muted slash
 o   - on rhythm slash represents single note slash

Misc Legend
-----------
 |  - bar
||  - double bar
||o - repeat start
o|| - repeat end
*|  - double bar (ending)
 :  - bar (freetime)
 $  - Segno
 &  - Coda
Tempo markers -  = BPM(8/16=s8/s16), where s8 = swing 8ths, s16 = swing 16ths





Comments


Popular Sublime tabs & chords
Hope Chords
Rivers Of Babylon Chords
April 29, 1992 (Miami) Tabs
Bad Fish 2 Tabs
Badfish Tabs
Boss D.J. Chords Shown Tabs
Ebin Tabs
Jailhouse 1 Tabs
Steppin' Razor Tabs
Guava Jelly Ukulele


Song lyrics



↑ Back to top | Tablatures and chords are parodies/interpretations of the original songs. You may use it for private study, scholarship, research or language learning purposes only
© 2014 AZChords.com Contact us | Privacy policy | DMCA | Add/correct tabs | Request tabs | Top 50 tabs