» » »

Same In The End Tabs (ver.4)

Artists:  A B C D E F G H I J K L M N O P Q R S T U V W X Y Z # 

Same In The End Tabs (ver.4)

Sublime
Rating:
0/5 (0 votes)

Hard to play? Try these video lessons and learn fast.
                
Main Riff
e|-5-x-5-x-5-x-5-x-5-x-5-x-5-x-5-x-|     |-5---5-x-5-x-5-x-| Throw this in
B|-6-x-6-x-6-x-6-x-6-x-6-x-6-x-6-x-|     |-5h6-6-x-6-x-6-x-| every once in
G|-7-x-7-x-7-x-7-x-7-x-7-x-7-x-7-x-|     |-5h7-7-x-7-x-7-x-| a while 
D|---------------------------------|     |-----------------| especially
A|---------------------------------|     |-----------------| in the last 
E|---------------------------------|     |-----------------| half of the 
quick up stroke and quick muted down stroke                  song

Chorus
e|---------|---------|---------|------|------|---------|---------|---------
B|---------|---------|---------|------|------|---------|---------|---------
G|---------|-5-5-555-|---------|-7-77-|-5-55-|---------|---------|---------
D|-3-3-333-|-5-5-555-|-7-7-777-|-7-77-|-5-55-|-8-8-888-|-3-3-333-|-7-7-777-
A|-3-3-333-|-3-3-333-|-7-7-777-|-5-55-|-3-33-|-8-8-888-|-3-3-333-|-7-7-777-
E|-1-1-111-|---------|-5-5-555-|------|------|-6-6-666-|-1-1-111-|-5-5-555-

  ---------|
  ---------|
  ---------|
  -777-777-|
  -777-777-|
  -555-555-|

Bridge
e|-10-1010-|-8-8-8--|------|-101010-| its 10 10 10 not 1 0 1 0
B|-10-1010-|-101010-|-6-66-|-101010-|
G|-10-1010-|-101010-|-7-77-|-101010-|
D|---------|--------|-7-77-|--------|
A|---------|--------|------|--------|
E|---------|--------|------|--------|

Solo
e|----------|-----------|-------------|-----------|
B|----------|-----------|-------------|-----------|
G|----------|-----------|-------------|-----------|
D|--3-5-3-5-|-3-5-3-3-5-|-3-5-3-3-5/7-|-7-5-3-2b--|
A|-5---5----|------5----|------5------|---------5-|
E|----------|-----------|-------------|-----------|
            
Hard to play? Try these video lessons and learn fast. | Correct




comments powered by Disqus
↑ Back to top | Tablatures and chords are parodies/interpretations of the original songs. You may use it for private study, scholarship, research or language learning purposes only