» » »

Sublime, River Of Babylon Tabs (ver.4)

Artists:  A B C D E F G H I J K L M N O P Q R S T U V W X Y Z # 

River Of Babylon Tabs (ver.4)

Sublime Tabs
 Rating:
4/5 (4 votes)
River Of Babylon lessons Tabs too difficult? Try these video lessons and learn fast
1
                (Intro)
Tuning: Standard (E A D G B E)

h= hammer on & p= pull off

                     D U D U D U 
E|-------------------3-3-3-3-3-3-------------------------------------||
B|-------------------3-3-3-3-3-3-------------------------------------||
G|-------------------------------------------------------------------||
D|------------------------------Play-Twice---------------------------||
A|-----2-2-2h3p------2-2-2-2-2-2-------------------------------------||
E|-3-3---------3--3--3-3-3-3-3-3-------------------------------------||

                        D U D U D U  
E|----------------------2-2-2-2-2-2----------------------------------||
B|----------------------3-3-3-3-3-3----------------------------------||
G|----------------------2-2-2-2-2-2----------------------------------||
D|-------------------------------------------------------------------||
A|-2-2-3-3-2-2-0---0-------------------------------------------------||
E|-------------------------------------------------------------------||

E|----------------------------3-3-3-3-3-3----------------------------||
B|----------------------------3-3-3-3-3-3----------------------------||
G|-------------------------------------------------------------------||
D|-------0-0-2p0-----------------------------------------------------||
A|---2p0----------2p0---------2-2-2-2-2-2----------------------------||
E|-3------------------2-3--3--3-3-3-3-3-3----------------------------||
            
Submit corrections

comments powered by Disqus
↑ Back to top | Sublime Tabs for River Of Babylon. Lyrics for acoustic guitar and electric guitar. 1 Tablatures and chords are parodies/interpretations of the original songs. You may use it for private study, scholarship, research or language learning purposes only