>
 >
Poolshark 2

Poolshark 2 Guitar Tabs

Sublime - Poolshark 2 chords, tabs, tablatures, lyrics

Guitar lessons | Add/correct | Request | Top 50 tabs Artists:  A B C D E F G H I J K L M N O P Q R S T U V W X Y Z 0-9

Poolshark 2 Guitar Tabs – Sublime

CD, Sheet music, Poster

Do you like Poolshark 2? Share with your friends now
Tabs
Tuning: Standard (EADGBE) 

intro god knows

verse 1
e------------------------------------------------------------
b------------------------------------------------------------
g--7-7-7-7-7-7-7-7-------------------------------------------
d--7-7-7-7-7-7-7-7---7-7-7-7-7-7-7-7---8-8-8-8-8-8-8-8-------
a--5-5-5-5-5-5-5-5---7-7-7-7-7-7-7-7---8-8-8-8-8-8-8-8-------
e--------------------5-5-5-5-5-5-5-5---6-6-6-6-6-6-6-6-------

Lying in my plasic bed, thinkin' how things
weren't so cool to me. My baby likes to shoot pool. 
I like lying naked in my bedroom. 

e------------------------------------------------------------
b------------------------------------------------------------
g--------------------------------------6-6-6-6-6-6-6-6-------
d--3-3-3-3-3-3-3-3---4-4-4-4-4-4-4-4---6-6-6-6-6-6-6-6-------
a--3-3-3-3-3-3-3-3---4-4-4-4-4-4-4-4---4-4-4-4-4-4-4-4-------
e--1-1-1-1-1-1-1-1---2-2-2-2-2-2-2-2-------------------------

Tying on that dinosaur tonight, I used to be so cool. 


e------------------------------------------------------------
b------------------------------------------------------------
g--9-9-9-9--------------9-9-9-9-------------9-9-9-9----------
d--9-9-9-9----9-9-9-9---9-9-9-9---9-9-9-9---9-9-9-9----------
a--7-7-7-7----9-9-9-9---7-7-7-7---9-9-9-9---7-7-7-7----------
e-------------7-7-7-7-------------7-7-7-7--------------------

But Now I've got the needle, and I can't shake, but I can't breathe. 
Take it away but I want more and more. 

e------------------------------------------------------------
b------------------------------------------------------------
g---9--9--9--9-----------------------------------------------
d--11-11-11-11-----------------------------------------------
a--11-11-11-11-----------------------------------------------
e------------------------------------------------------------

One day I'm gonna lose the war.

Verse 2
e------------------------------------------------------------
b------------------------------------------------------------
g-------------------6-6-6-6-6-6-6-6--7-7-7-7-7-7-7-7---------
d--4-4-4-4-4-4-4-4--6-6-6-6-6-6-6-6--7-7-7-7-7-7-7-7---------
a--4-4-4-4-4-4-4-4--4-4-4-4-4-4-4-4--5-5-5-5-5-5-5-5---------
e--2-2-2-2-2-2-2-2-------------------------------------------
Lying in my plasic bed, thinkin' how things weren't so cool to me. My baby likes to shoot pool. 
e------------------------------------------------------------
b------------------------------------------------------------
g------------------------------------10-10-10-10-10-10-10-10-
d--7-7-7-7-7-7-7-7--8-8-8-8-8-8-8-8--10-10-10-10-10-10-10-10-
a--7-7-7-7-7-7-7-7--8-8-8-8-8-8-8-8---8--8--8--8--8--8--8--8-
e--5-5-5-5-5-5-5-5--6-6-6-6-6-6-6-6--------------------------
I like lying naked in my bedroom. Tying on that dinosaur tonight, I used to be so cool.
e-----------------------------------------------------------------
b-----------------------------------------------------------------
g--12-12-12-12---------------12-12-12-12---------------12-12-12-12
d--12-12-12-12--12-12-12-12--12-12-12-12--12-12-12-12--12-12-12-12
a--10-10-10-10--12-12-12-12--10-10-10-10--12-12-12-12--10-10-10-10
e---------------10-10-10-10---------------10-10-10-10-------------
But now I've got that needle, and I can't shake, but I can't breathe. Take it away but I want more and more. 
e-----------------------------------------------------------------
b-----------------------------------------------------------------
g--10--(Let it ring)----------------------------------------------
d--10-------------------------------------------------------------
a---8-------------------------------------------------------------
e-----------------------------------------------------------------
One day i'm gonna lose the war





Comments


Popular Sublime tabs & chords
Lets Go Get Stoned 2 Bass Tabs
Pawn Shop 3 Bass Tabs
Roots Of Creation Bass Tabs
What Happend Bass Tabs
40 Oz. To Freedom Chords
40 Oz. To Freedom 2 Chords
Ball & Chain Tabs
Lincoln Highway Dub Tabs
Drunk Driving Ukulele
Pool Shark 2 Ukulele


Song lyrics



↑ Back to top | Tablatures and chords are parodies/interpretations of the original songs. You may use it for private study, scholarship, research or language learning purposes only
© 2014 AZChords.com Contact us | Privacy policy | DMCA | Add/correct tabs | Request tabs | Top 50 tabs