» » »

Pawn Shop Bass tabs (ver.3)

Artists:  A B C D E F G H I J K L M N O P Q R S T U V W X Y Z # 

Pawn Shop Bass tabs (ver.3)

Sublime
Rating:
0/5 (0 votes)

Tabs too difficult? Try these video lessons and learn fast.
                -------------------------------------------------------------------------------
			    PAWN SHOP - Sublime
-------------------------------------------------------------------------------

Tuning: Standard

Main Riff: (9/10ths of the song)
G|------------------|
D|----55---55-------|
A|-5h7--5h7--75--5--|
E|-------------7----|

Ending: (after Bradley says "Sing!")
G|----------------------------|
D|----------------------------|
A|-5h7--7775-----5-5h777775---|
E|----------7--7-----------7--|

That's it. Easy if you have the stamina
            
Tabs too difficult? Try these video lessons and learn fast.


comments powered by Disqus
↑ Back to top | Tablatures and chords are parodies/interpretations of the original songs. You may use it for private study, scholarship, research or language learning purposes only