» » »

Pass Me The Lazerbeam Bass tabs (ver.1)

Artists:  A B C D E F G H I J K L M N O P Q R S T U V W X Y Z # 

Pass Me The Lazerbeam Bass tabs (ver.1)

Sublime
Rating:
0/5 (0 votes)

Hard to play? Try these video lessons and learn fast.
                Sublime
Pass Me The Lazerbeam (from the bootleg "bumS lie")

INTRO
G|--------------------------------------------|
D|----------------------------0-0-5-7---7---7-|
A|---------------------0-0--0---------0---0---|
E|-10-10-/-7-3h5-5-5-5------------------------|

MAIN RIFF (repeated through most of the song)
G|-----------------------------|
D|-----------------------------|
A|-----------------------------|
E|-5-5--5-5-5--5-10-10-8-10-12-|

there are also variations of the main riff, but none of them involve
anything more than excluding parts of it, so if you listen to the song,
you will easily figure out how it's played.
            
Hard to play? Try these video lessons and learn fast. | Correct




comments powered by Disqus
↑ Back to top | Tablatures and chords are parodies/interpretations of the original songs. You may use it for private study, scholarship, research or language learning purposes only